Аккорды Beyond The Black - Song For The Godless

Добавлено: @romashka
Дата добавления: 03 Декабря 2019г.
Рейтинг:
0.0
Просмотров: 12
Транспонировать - +
Intro:
E|-8--10-11--10-8-----8------|-8--10-11--10-8-13--11-10-11-10-8-|
B|----------------11----11-8-|----------------------------------|
G|---------------------------|----------------------------------|
D|---------------------------|----------------------------------|
A|---------------------------|----------------------------------|
E|---------------------------|----------------------------------|

E|-8--10-11--10-8-----8------|-8--8--10-11-10-8----8-|
B|----------------11----11-8-|------------------11---|
G|---------------------------|-----------------------|
D|---------------------------|-----------------------|
A|---------------------------|-----------------------|
E|---------------------------|-----------------------|

Verse 1:
Cm                      A#
Sing me a song for the voiceless
A#              D#            A#
А song for our daughters and sons
Cm                      A#
Sing me a song of our heroes
Gm            Cm
So long since gone

Pre-Chorus:
Cm             (G#)
And time after time
Cm              (G#)
And night after night
(G#)         Gm          A#
We're still here in the dark
G#
And day after day
G#
We're not fading away
G#        Gm G
Till the dawn

Chorus:
G         Cm      D#
Will you join me singing this song
D#       A#      Gm
All the godless heroes are gone
Gm       Cm G# D#
Singing, oh-oh-oh
(Gm)     D# Gm7 A#
Singing, oh-oh-oh
A#        Cm
Will you find me
D#                           A#
Give me your heart for this sorrow
Gm
Tears me apart
Gm       Cm G# D#
Singing, oh-oh-oh
(Gm)     D# Gm7 A#
Singing, oh-oh-oh
A#             Cm
And godless we are

Intro:
E|-8--10-11--10-8-----8------|-8--10-11--10-8-13--11-10-11-10-8-|
B|----------------11----11-8-|----------------------------------|
G|---------------------------|----------------------------------|
D|---------------------------|----------------------------------|
A|---------------------------|----------------------------------|
E|---------------------------|----------------------------------|

E|-8--10-11--10-8-----8------|-8--8--10-11-10-8----8-|
B|----------------11----11-8-|------------------11---|
G|---------------------------|-----------------------|
D|---------------------------|-----------------------|
A|---------------------------|-----------------------|
E|---------------------------|-----------------------|

Verse 2:
Cm                      A#
Sing me a song of the nameless
  A#               D#          A#
Of thieves and of beggars like us
Cm                     A#
Sing me a song of the last ones
Gm         Cm
Forgotten sons

Pre-Chorus:
Cm             (G#)
And time after time
Cm              (G#)
And night after night
(G#)         Gm          A#
We're still here in the dark
G#
And day after day
G#
We're not fading away
G#        Gm G
Till the dawn

Chorus:
G         Cm      D#
Will you join me singing this song
D#       A#      Gm
All the godless heroes are gone
Gm       Cm G# D#
Singing, oh-oh-oh
(Gm)     D# Gm7 A#
Singing, oh-oh-oh
A#        Cm
Will you find me
D#                           A#
Give me your heart for this sorrow
Gm
Tears me apart
Gm       Cm G# D#
Singing, oh-oh-oh
(Gm)     D# Gm7 A#
Singing, oh--oh--oh
A#             Cm
And godless we are

Intro:
E|-8--10-11--10-8-----8------|-8--10-11--10-8-13--11-10-11-10-8-|
B|----------------11----11-8-|----------------------------------|
G|---------------------------|----------------------------------|
D|---------------------------|----------------------------------|
A|---------------------------|----------------------------------|
E|---------------------------|----------------------------------|

E|-8--10-11--10-8-----8------|-8--8--10-11-10-8----8-|
B|----------------11----11-8-|------------------11---|
G|---------------------------|-----------------------|
D|---------------------------|-----------------------|
A|---------------------------|-----------------------|
E|---------------------------|-----------------------|

Chorus: 
(play slowly or one strike for each chord)
          Cm      D#
Will you join me singing this song
         A#      Gm
All the godless heroes are gone
         Cm G# D#
Singing, oh-oh-oh
         D# Gm7 A# (overdrive A#)
Singing, oh-oh-oh

(normal strumming)
A#        Cm
Will you find me
D#                           A#
Give me your heart for this sorrow
Gm
Tears me apart
Gm       Cm G# D#
Singing, oh-oh-oh
(Gm)     D# Gm7 A#
Singing, oh-oh-oh
A#             Cm G# Cm
And godless we are

Cm       D# Gm7 A#
Singing, oh-oh-oh
A#             Cm
And godless we are

Outro=Intro: (play diminuendo(>)
E|-8--10-11--10-8-----8------|-8--10-11--10-8-13--11-10-11-10-8-|
B|----------------11----11-8-|----------------------------------|
G|---------------------------|----------------------------------|
D|---------------------------|----------------------------------|
A|---------------------------|----------------------------------|
E|---------------------------|----------------------------------|

E|-8--10-11--10-8-----8------|-8--8--10-11-10-8----8-|
B|----------------11----11-8-|------------------11---|
G|---------------------------|-----------------------|
D|---------------------------|-----------------------|
A|---------------------------|-----------------------|
E|---------------------------|-----------------------| x2

vv^v^vv^v^v - almost all song on the each chord
comments powered by Disqus
Наверх