Аккорды Beyond The Black - Songs Of Love And Death

Добавлено: @romashka
Дата добавления: 03 Декабря 2019г.
Рейтинг:
0.0
Просмотров: 20
Транспонировать - +
Chorus:
Fm                         Cm
Come and join my voice in songs of love and death
Cm        A#m                G#m     D#    Fm
Come and feel me, steal me, save me from myself
Fm                         D#
All my longing, wandering heart is yours to have
D#       A#m               G#m      D#       Fm
Come and join my voice in songs of love and death

Intro:
E|------------|------------------------|
B|------------|----------2-1-----------|
G|-------3-2--|------3-2-----3-2---2---|
D|--4-3-------|--4-3-------------4---3-|
A|------------|------------------------|
E|------------|------------------------|

E|-------------------------|-----------------------|
B|----------2-1------------|----------2-1----------|
G|------3-2-----3-2---2----|------3-2-----3-2------|
D|--4-3-------------4---3--|--4-3-------------4--3-|
A|-------------------------|-----------------------|
E|-------------------------|-----------------------| x2

Verse 1:
Dm                       C
Tonight we'll start off our story told
G                       A#        C       Dm
From this day on we'll watch our lives unfold
Bm                  A
Kisses of fate on my shivering skin
Em                      G             A       B C
You touch my heart and reach for the soul within

Chorus:
          Fm               Cm
Come and join my voice in songs of love and death
Cm        A#m                G#m     D#    Fm
Come and feel me, steal me, save me from myself
Fm                         D#
All my longing, wandering heart is yours to have
D#       A#m               G#m      D#       Fm
Come and join my voice in songs of love and death
G#m      D#       Fm
Songs of love and death

Intro:
E|------------|------------------------|
B|------------|----------2-1-----------|
G|-------3-2--|------3-2-----3-2---2---|
D|--4-3-------|--4-3-------------4---3-|
A|------------|------------------------|
E|------------|------------------------|

E|-------------------------|-----------------------|
B|----------2-1------------|----------2-1----------|
G|------3-2-----3-2---2----|------3-2-----3-2------|
D|--4-3-------------4---3--|--4-3-------------4--3-|
A|-------------------------|-----------------------|
E|-------------------------|-----------------------| x2

Verse 2:
Dm                   C
Tonight our fortune will turn her wheel
Gm                      A#        C      Dm
I'll close my eyes and listen to what I feel
Bm                        A
And when the dawn breaks for you and me
Em                    G            A        B C
Then we will turn to more than we both could be

Chorus:
          Fm               Cm
Come and join my voice in songs of love and death
Cm        A#m                G#m     D#    Fm
Come and feel me, steal me, save me from myself
Fm                         D#
All my longing, wandering heart is yours to have
D#       A#m               G#m      D#       Fm
Come and join my voice in songs of love and death
G#m      D#       Fm
Songs of love and death

Chorus:
(play slowly)
          Fm               Cm
Come and join my voice in songs of love and death
Cm        A#m                G#m     D#    Fm
Come and feel me, steal me, save me from myself

(normal strumming)
Fm                         D#
All my longing, wandering heart is yours to have
D#       A#m               G#m      D#       Fm
Come and join my voice in songs of love and death
G#m      D#       Fm
Songs of love and death

Outro:
E|------------------------|
B|----------2-1-----------|
G|------3-2-----3-2---2---|
D|--4-3-------------4---3-|
A|------------------------|
E|------------------------|

The first chorus play:
E|------------x--------|------------x--------|
B|-------x--------x----|-------x--------x----|
G|-----x---x----x---x--|-----x---x----x---x--|
D|---------------------|---------------------|
A|---------------------|--x------------------|
E|--x------------------|---------------------|

Then the whole song with the usual strumming.
comments powered by Disqus
Наверх