Аккорды Би-2 - Её глаза (из Шекспира)

Добавлено: @romashka
Дата добавления: 09 Апреля 2022г.
Рейтинг:
0.0
Просмотров: 21
Транспонировать - +
[Вступление]:
                G     F#  Bm    D       G     F#  Bm
E|------7-5--------|---------|--7-5--------|---------|
B|--0-3-----7-5----|---------|------7-5----|---------|
G|--------------7--|--7-6-7--|----------7--|----6-7--|
D|-----------------|---------|-------------|--8------|
A|-----------------|---------|-------------|---------|
E|-----------------|---------|-------------|---------|

[Куплет 1]:
Bm            A         D
Её глаза на звёзды непохожи,
        Em          D          A
В них бьётся мотыльком живой огонь.
 Em        F#           G
Ещё один обычный вечер прожит,
    Bm      A             G 
А с ней он каждый раз другой.

Bm           A            D
Её упрёки - вестники прохлады,
     Em         D          A
Как скошенная в августе трава.
   Em           F#            G
И пусть в её словах ни капли правды.
 Bm    A           G 
Она божественно права.


[Припев]:
           D          G
    Где-то ангелы кричат:
E|---------7--5-------3--|
B|----0--3------7--5--3--|
G|--------------------4--|
D|--------------------5--|
A|--------------------5--|
E|--------------------3--|

   F#     Bm
Прости-прощай.
 D         G
Плавится душа
F#     Bm      
Как свеча.
 D            G  F#    Bm 
Разлилась по сердцу печаль.
D         G    F#      Bm
Я навеки твой, ты - ничья.



[Куплет 2]:
Bm         A         D
Её сиянье затмевает солнце,
  Em         D           A 
И замерзает кровь в её тени.
  Em         F#        G
Такое счастье дорого даётся.
   Bm     A           G 
Венец, откуда ни взгляни.

  Bm           A            D
Любой валет в её большой колоде
   Em              D           A
Падёт, как жертва ревности слепой.
 Em        F#        G
Она одна и от меня уходит
   Bm     A           G 
Давно проторенной тропой.


[Припев].
Наверх