Аккорды Би-2 - Серебро (Акустика)

Добавлено: @vitos
Дата добавления: 16 Марта 2013г.
Рейтинг:
5.0
Просмотров: 962
Транспонировать - +
E|-5-7-8-7-5^7^5---5^7^5---0-1-3-1-0^1^0---------------------|
B|-------0-------6---------------3-------3--------b3---b5----|
G|---------------5-----------------2------4^5^4--------------|
D|---------7-------------------0---------2-----------5----6--|
A|-----0----------------------------------------2--5----7----|
E|-----------------------------------------------------------|

E|-3-1-0^1^0---------|
B|---0-------3---3-3-|
G|-------------1-----|
D|-0---------2-----2-|
A|-------------------|
E|-------------------|

E|------------------------------------5-5--3-1-0^1^0----|
B|-3-3----------------------------5-5--------0-------3--|
G|-------------2-2-2-2/4-4--5-5-5-----------------------|
D|-0-0-1/2-2-2-----------------------------0---------2--|
A|---------------2--------------0-----------------------|
E|-----------------------0------------------------------|

E|7-7-7-7-8-7-5-------------|
B|--------------5-5-5-5-6-5-|
G|--------------------------|
D|------------7-------------|
A|------0-------------0-----|
E|--------------------------|

E|-----------------5-5-5-5/7-|
B|-3---3-3-3-3/5-5-----------|
G|---1-----------------------|
D|-2-------0---2-------0-----|
A|-------------------------0-|
E|---------------------------|

Наверх