Аккорды Би-2 - Волки

Добавлено: @Jlblcblu
Дата добавления: 16 Марта 2013г.
Рейтинг:
5.0
Просмотров: 981
Транспонировать - +
Вступление: Hm | F# | G | F#

        Hm            
Волки уходят в небеса
         F#
Горят холодные глаза
         G
Приказа верить в чудеса
         F#
Не поступало

Далее проигрыш в куплете:

   Hm                  F#
D|----------------------------------------|
A|-9-9---5---9-9---5---9-9---4---9-9---4--|

   G                   F#
D|-----------------------------4----------|
A|-5-5---2---5-5---2---4-4---1---4-4---1--|

И каждый день другая цель
То стены гор, то горы стен
И ждет отчаяных гостей
Чужая стая

     Hm
 Спиной
             C#
 К ветру и все же
            Em
 Вырваться может
           F#
 Чья-то душа

 Спасет,
 Но не поможет
 Чувствую кожей
 Пропящая

Не помнят слов, не видят снов
Переросли своих отцов
И, кажется, рука бойцов
Колоть устала

Далее проигрыш в куплете:

     Hm       F#       G      F#
e|---7--------9--------10-----12-------|
H|-7--------7--------8-----------11----|
G|----------------------------------11-|

     Hm       F#       G         F#
e|---7--------9--------0---------------2-|
H|-7--------7------------0-----------5---|
G|-------------------------0-------3-----|
D|-------------------------------4-------|

Позор и слава в их крови
Хватает смерти и любви
Но сколько волка ни корми
Ему все мало.


Соло:

      Hm      F#   G            F#        Hm      F#   G         F#
e|-------|-------|-------------------|-------|-------|----------------|
H|-------|-------|-------------------|-------|-------|----------------|
G|-------|-------|-------------------|-------|-------|----------------|
D|-5-4---|-5-4---|-5--4-5------------|-5-4---|-5-4---|-5-----5-5-4----|
A|-----2-|-----1-|---------5-4-------|-----2-|-----1-|----------------|
E|-------|-------|-------------6-2---|-------|-------|----------------|

      Hm      F#   G            F#        Hm      F#        G      F#
e|-------|-------|-------------------|-------|-------|----------------|
H|-------|-------|-------------------|-------|-------|----------------|
G|-------|-------|-------------------|-------|-------|---4-6-7--7/9---|
D|-5-4---|-5-4---|-5--4-5----------4-|-5-4---|-5-4---|-4------------8-|
A|-----2-|-----1-|---------5-4-------|-----2-|-----1-|----------------|
E|-------|-------|-------------6-2---|-------|-------|----------------|

 Припев
Наверх