Аккорды Би-2 - Мяу кисс ми

Добавлено: @Jlblcblu
Дата добавления: 16 Марта 2013г.
Рейтинг:
5.0
Просмотров: 991
Транспонировать - +
Вступление:

   Am            E             F                  E
e|-------------|-------------|-----------------|-----|
H|-5-----------|-3-----------|-1---------------|-----|
G|---5--2------|---4--1------|---2-------------|-----| \
D|---------3-2-|---------3-2-|------3--3-2---3-|--2--| / 2 раза
A|-------------|-------------|-----------------|-----|
E|-------------|-------------|-----------------|-----|

Am                 E                   F  
Люби меня как я тебя и может полные края
                     Е
Я расплескаю все до капли
Вода чернеет у моста и за трубой два хвоста
Берут за горло чьи-то лапы

      Am                    E     
 Мяу кисс ми ненавистная любовь   G|-8-9-8--4-| (и далее)
      F                     E  
 Я зализывать твои не буду раны
 Мяу кисс ми свои мысли за кого
 Я гореть и плавить свое сердце стану

Навылет очередь она так близко сядет от меня
И разорвет наверно в клочья
И все что дальше только тень и невозможен каждый день
Для тех кому не спится ночью

 Припев

Проигрыш = вступление

 Припев

Кода:

       Am                  E       F                   E
e|-----5--------5--------|---|-----5--------5--------|---|
H|-4-5---5--4-5---5--4-5-|---|-4-5---5--4-5---5--4-5-|---| > 2 раза
G|-----------------------|-4-|-----------------------|-4-|
Наверх