Аккорды Bicycles For Afghanistan - Прятки

Добавлено: @romashka
Дата добавления: 19 Марта 2022г.
Рейтинг:
0.0
Просмотров: 31
Транспонировать - +
[Интро]:
e-6----6----9--8--6-------7---7---7--------
B-6----6-------------9------9---9---9~-----
G-7----7-----------------------------------  x2
D-8----8-----------------------------------  
A-8----8-----------------------------------
E-6----6-----------------------------------

*В куплетах продолжаем играть рифф из интро, только чуть активнее
 Или можно объединить мелодию и аккорд и играть их одновременно чёсом (как в оригинале)
A#
Я был лишь тем
A#
Кто эхом отзовётся
A#
Лишь тем, кого
A#
Твой взор коснется

B          D#m    A#m
И боль окажется приятной
B          D#m    A#m    F
И улыбнётся серый день
F#           C#           A#m
Мы с ним опять играем в прятки
G#          F#
И не помним о тебе

e-6----6----9--8--6-------7---7---7--------
B-6----6-------------9------9---9---9~-----
G-7----7-----------------------------------  x4
D-8----8-----------------------------------  
A-8----8-----------------------------------
E-6----6-----------------------------------

A#
Я был на дне
A#
Был отражением
A#                  A#
В глазах потерянных людей

B          D#m    A#m
И боль окажется приятной
B          D#m    A#m    F
И улыбнётся серый день
F#           C#           A#m
Мы с ним опять играем в прятки
G#          F#
И не помним о тебе

F#        G#
Мы всегда были сном
A#m
И наваждением
F#        G#
Мы всегда были сном
A#m
И наваждением
F#        G#
Мы всегда были сном

A#
e-9--8--6-------7---7---7---
B----------9------9---9---9-
G---------------------------  x до конца
D--------------------------- 
A---------------------------
E--------------------------- 
Наверх