Аккорды «Big Country»

Big Country
Группа образована в 1982 г. в Великобритании. Два лондонских сессионных музыканта, Бржезицкий и Батлер, всегда работали только вместе, и на конвертах пластинок эта ритм-секция фигурировала под названием Rhythm For Hire (т. е. «Ритм напрокат»). Некоторое время они входили в состав группы On The Air, однако вскоре вернулись к прежней работе. В начале 1982 г. они познакомились в лондонской студии фирмы Phonogram с музыкантами шотландской группы «новой волны» The Skids (Адамсон четыре года играл в этой… Читать полностью... Группа образована в 1982 г. в Великобритании. Два лондонских сессионных музыканта, Бржезицкий и Батлер, всегда работали только вместе, и на конвертах пластинок эта ритм-секция фигурировала под названием Rhythm For Hire (т. е. «Ритм напрокат»). Некоторое время они входили в состав группы On The Air, однако вскоре вернулись к прежней работе. В начале 1982 г. они познакомились в лондонской студии фирмы Phonogram с музыкантами шотландской группы «новой волны» The Skids (Адамсон четыре года играл в этой группе), которым помогали записывать сингл «Harvest Home», и у них родилась идея организовать совместный проект. Несмотря на хорошие перспективы в Лондоне ставший лидером Big Country Стюарт Адамсон настоял, чтобы Группа базировалась в Шотландии, и в дальнейшем в композициях Big Country всячески акцентировал свои шотландские корни. Эффектная гитарная связка Адамсон-Уотсон и импровизирующая ритм-секция стали опознавательными знаками Big Country, и к моменту выхода дебютного альбома, который продюсировал Стив Лиллиуайт, специалисты уже знали группу - два сингла с этой пластинки, «Fields Of Fire (400 Miles)» и «In A Big Country», вошли в британский хит-парад (второй сингл добрался и до 17-го места в американском). Однако настоящий успех принесла композиция «Chance», сделанная в лучших традициях баллад Брюса Спрингстина (песня заняла 9-е место в хит-параде Великобритании); вошли в английский Тор 10 «Wonderland» и «Look Away»Второй альбом - «Steettown» - был посвящен проблеме упадка маленьких промышленных городов - тема очень близкая Адамсону, - но, несмотря на политическую направленность, пластинка имела коммерческий успех и укрепила репутацию Big Country как многообещающей группы. Третий диск был выполнен в стилистике двух первых, и публике начали надоедать несколько прямолинейные вещи группы и неизменный социальный подтекст композиций - тем не менее один сингл «King Of Emotion» попал в национальный Тор 20. Четвертый альбом продюсировал американец Питер Вулф из группы J. Geils Band - здесь была учтена специфика прежних работ Big Country, однако опытный Вулф сделал поправку на требования аудитории, в результате пластинка получилась не столь резкой, как предыдущие, и этого оказалось достаточно, чтобы диск имел огромный успех в США. Работы Big Country 90-х годов отражают развитие новых методов звукозаписи - практически все пластинки этого периода фигурировали в хит-параде Англии, что подтверждает жизнеспособность рока Big Country. Несмотря на слабо проведенные гастроли по США летом 1994 г., группа нашла время записать достаточно сильный студийный альбом, в котором прослеживается попытка несколько смягчить саунд. Скрыть...
Популярные аккорды Big Country:
алфавиту | просмотрам | случайно
  • h - hammer on
    b - bend up
    / - slide up
     - slide down
    ~ - vibrato
    
    
    CHORDS FOR RHYTHM GUITAR (Guitar 2)
    
       G5   G    E5   D5   C   G5(2) A5  G(2) Em   C(2) Am
    E|----|----|----|----|----|----|----|----|----|----|----|
    B|----|----|----|----|----|----|----|----|----|----|----|
    G|-7--|-4--|-4--|-2--|-9--|-12-|-9--|-4--|-0--|-9--|-5--|
    D|-5--|-5--|-2--|-0--|-10-|-12-|-7--|-5--|-2--|-10-|-7--|
    A|----|----|----|----|----|----|----|-5--|-2--|-10-|-7--|
    E|----|----|----|----|----|----|----|-3--|-0--|-8--|-5--|
    
    
    INTRO…
  • Intro: (A) E A   C#m A   E A   C#m A   B A   E B
    
    	A            C#m
    	This time we run
    	A            E
    	This time we hide
    	A            C#m             A              E
    	This time we draw on all the fire we have inside
    	A…
  • h - hammer on
    p - pull off
    b - bend up
    / - slide up
     - slide down
    ~ - vibrato
    
    Guitar 1 - Stuart Adamson
    Guitar 2 - Bruce Watson
    
    
    INTRO - Both guitar riffs are played twice before the verse
            enters. The slide in…
  • PM = palm mute - mute the strings with the palm of your hand
    h  = hammer on
    p  = pull off
    /  = slide up
      = slide down
    t  = tap (with strumming hand)
    
    
    INTRO - [Riff 1] x 2
    
    E|---------------------------------|---------------------------------|
    B|---------------------------------|---------------------------------|
    G|---------------------------------|---------------------------------|
    D|--7------7-----4--------4-----4--|--2------2-----4--------7--4-----|
    A|------0-----0-----5--5-----5-----|------0-----0-----5--5--------5--|
    E|---------------------------------|---------------------------------|…
  • Amsus2    Am(add 9)     D5add6add9      Fma7#4
    
    
                        4/4
                         E E E E E E  E  E     E E E E E E E E   E E E E E E E E
                      E|---0-------0---------|---0-----0-----0-|---0-----0-------|…
  • h - hammer on
    p - pull off
    / - slide up
     - slide down
    ~ - vibrato
    PM- palm mute
    
    Guitar 1 - Stuart Adamson
    Guitar 2 - Bruce Watson
    
    CHORDS FOR RHYTHM GUITAR - Guitar 2
    
      A       C#m     D       E       F#m
    E|---5---|---4---|-------|-------|---2---|
    B|---5---|---5---|---7---|---9---|---2---|
    G|---6---|---6---|---7---|---9---|---2---|
    D|---7---|---6---|---7---|---9---|---4---|
    A|---7---|---4---|---5---|---7---|---4---|
    E|---5---|-------|-------|-------|---2---|
    
    INTRO…
  • Intro: D
    
    		Bm                  A
    	All the rain came down on a cold new town
    	      G           D
    	As he carried you away
    		  Bm                        A
    	From your father's hand that always seemed like a fist
    		 G…
  • h - hammer on
    p - pull off
    / - slide up
     - slide down
    ~ - vibrato
    PM- palm mute
    
    
    INTRO/VERSE 1 - [Riff 1 x 4]Guitar 2
    
    
    E|-----15-----12-|-----15-----12----|-----12-----8-|-----12-----8----|
    B|-13-----13-----|-13------13----13-|-10-----10----|-10------10---10-|
    G|---------------|------------------|--------------|-----------------|
    D|---------------|------------------|--------------|-----------------|
    A|---------------|------------------|--------------|-----------------|
    E|---------------|------------------|--------------|-----------------|
    
    
    [Riff…
  • h - hammer on
    p - pull off
    / - slide up
     - slide down
    ~ - vibrato
    PM- palm mute
    
    Guitar 1 - Stuart Adamson
    Guitar 2 - Bruce Watson
    
    
    CHORDS FOR RHYTHM GUITAR
    
        E5       E     F#m(1) F#m(2)   A5      A       B     C#m(1)…
  • Intro	G	G/F#	Em	D	C	D	Em
    	G	G/F#	Em	D	C	D	G	
    
    Verse	
    C		G		C		    G	
    If beauty is an ecstacy	        And anger keeps you poor
    Em		       Am	C		  D	
    A hungry man is never free	A rich man never cured
    C	    Em	  D    G…
Наверх