Аккорды Billie Eilish - Everything I Wanted,

Добавлено: @romashka
Дата добавления: 20 Ноября 2019г.
Рейтинг:
0.0
Просмотров: 46
Транспонировать - +
Основной Рифф:
   Q.     Q.      Q         W      Q.     Q.     Q     
E||----------------------|------|------------------|
B||----------------------|------|------------------|
G||--6-------------------|------|--6---------------|
D||--7------7-------9----|------|--6------6------7-|
A||---------9------11----|------|---------7------9-|
E||----------------------|------|------------------|

  Н        Е   Е  Е  Е     Q.     Q.      Q       W                 
------------------------|----------------------|-----|
------------------------|----------------------|-----|
-----------6------6--7--|--6-------------------|-----|
-----------7h--9--------|--7------7-------9----|-----|
------------------------|---------9------11----|-----|
------------------------|----------------------|-----|

  Q.     Q.     Q       W                  
---------------------|-----||
---------------------|-----||
---------6------6----|-----||
--6------6------7----|-----||
--7------------------|-----||
---------------------|-----||

Verse 1:
Dmaj7     E
I had a dream
C#m                 Dmaj7
I got everything I wanted
Dmaj7          E
Not what you think
C#m               Dmaj7
And if I'm being honest
                  Dmaj7    E
It might have been a nightmare
               C#m       Dmaj7
To anyone who might care
Dmaj7            E
Thought I could fly
C#m                   Dmaj7
So I stepped off the Golden
Dmaj7    E
Nobody cried
 C#m         Dmaj7
Nobody even noticed
                    Dmaj7     E
I saw them standing right there
                    C#m     Dmaj7
Kinda thought they might care

Pre-Chorus:
Dmaj7     E
I had a dream
C#m                 Dmaj7
I got everything I wanted
    Dmaj7          E
But when I wake up I see
C#m        Dmaj7
You're with me
         Dmaj7
When you say

Chorus:
            E
As long as I'm here
C#m        Dmaj7
No one can hurt you
Dmaj7        E
Don't wanna lie here
C#m          Dmaj7
But you can learn to
Dmaj7        E
If I could change
    C#7          Dmaj7
The way that you see yourself
Dmaj7                E
You wouldn't wonder why here
C#m         Dmaj7
They don't deserve you

Verse 2:
Dmaj7        E
I tried to scream
C#m                    Dmaj7
When my head was under water
Dmaj7           E
They called me weak
C#m                           Dmaj7
Like I'm not just somebody's daughter
                  Dmaj7 E
Could've been a nightmare
                            C#m    Dmaj7
But it felt like they were right there
       Dmaj7                       E
And it feels like yesterday was a year ago
   C#m                  Dmaj7
But I don't wanna let anybody know
        Dmaj7                    E
Cause everybody wants something from me now
   C#m           Dmaj7
And I don't want them down

Pre-Chorus:
Dmaj7     E
I had a dream
C#m                 Dmaj7
I got everything I wanted
    Dmaj7          E
But when I wake up I see
C#m        Dmaj7
You're with me
         Dmaj7
When you say

Chorus:
            E
As long as I'm here
C#m        Dmaj7
No one can hurt you
Dmaj7        E
Don't wanna lie here
C#m          Dmaj7
But you can learn to
Dmaj7        E
If I could change
    C#7          Dmaj7
The way that you see yourself
Dmaj7                E
You wouldn't wonder why here
C#m         Dmaj7
They don't deserve you

Bridge:
Dmaj7             E
If I knew it all then
               C#m
Would I Do it again
               Dmaj7
Would I Do it again
Dmaj7                   E
If they knew what they said
                        C#m
Would Go straight to my head
                     Dmaj7
What would they say instead

Dmaj7             E
If I knew it all then
               C#7
Would I Do it again
               Dmaj7
Would I Do it again
Dmaj7                   E
If they knew what they said
                        C#m
Would Go straight to my head
                      Dmaj7
What would they say instead
comments powered by Disqus
Наверх