Аккорды Billy Boyd - Edge Of Night

Добавлено: @romashka
Дата добавления: 04 Ноября 2020г.
Рейтинг:
0.0
Просмотров: 25
Транспонировать - +
E-----------------------------------------------------------------------------|
B-----------------------------------------------------------------------------|
G--------------------4---5h7p5p4------------------------------4---5---4-------|
D-----7--7-7--------7-------------7-7-----------------7---7-----------------7-|
A--5---------------------------------------5-----5----------------------------|
E-----------------------------------------------------------------------------|
 Home is be-hind   the    world   a-head  
and  there  are ma-ny paths to tread.

E------------------------------------------------------------------------------|
B--------------------5---6----5------------------------------------------------|
G---7------7------7---------------7----------------------4---5---4-------------|
D--------------7-------------------------------7----7---------------7----------|
A---------------------------------------5-5------------------------------------|
E------------------------------------------------------------------------------|
  Through shad-ow to the edge of night 
un-til the stars are all a-light.

E----------------------------------------------------------------------------|
B--------------------5h6---5-------------------------------------------------|
G-7----7----7-------7-----------7--------------------4h5h7---5h7p5p4---------|
D--------------7-------------------------7-----7----7------------------7-----|
A------------------------------------5---------------------------------------|
E----------------------------------------------------------------------------|
  Mist and sha-dow  cloud and shade all shall fade. All...    
Shall....Fade.
Наверх