Аккорды Billy Boyd - Steward Of Gondor

Добавлено: @romashka
Дата добавления: 04 Ноября 2020г.
Рейтинг:
0.0
Просмотров: 25
Транспонировать - +
e--------------------------------------------------------------------|
B-------------------2------------------------------------------------|
G----1-1-1---1-3-4----4-3--1-1------1-1-3-4-3-1----------------------|
D------------------------------1-------------------------------------|
A-4------------------------------4-----------------------------------|
E--------------------------------------------------------------------|
Home is behind, the world's ahead, and there are many paths 
to tread

e--------------------------------------------------------------------|
B-2--2-------2--4-5--4/2---------------------------------------------|
G------1-----------------------1-1--3-4--3/1-------------------------|
D---------------------------1----------------------------------------|
A-----------------------------4--------------------------------------|
E--------------------------------------------------------------------|
Through shadow to the edge of night until 
the stars are all alight

e--------------------------------------------------------------------|
B-2--2-2-----2-4-5--4/2-2-------------------2------------------------|
G--------1-----------------------1-1---1-3-4-----3--4/3----------1---|
D--------------------------------------------------------4-----------|
A----------------------------4---------------------------------------|
E--------------------------------------------------------------------|

Mist and shadow, cloud and shade.  All shall fade.  
All..  shall.....   fade...
Наверх