Аккорды Bitcevsky park - Тёмные пятна

Добавлено: @romashka
Дата добавления: 08 Сентября 2022г.
Рейтинг:
0.0
Просмотров: 20
Транспонировать - +
6)-7-7-7-7-7-7-7-7-7-7-7-72-2/3-3-5-5-5-5-5-5-5-5-5-5-5-5-0-0-2-2

-3-3-3-3-3-3-3-3-3-3-3-3-0-0-2-2-3-3-3-3-3-3-3-3-5-5-5-5-5-5-5-5

Кассета играла вперёд, теперь мотает обратно
Я вижу на утреннем солнце только тёмные пятна

Открываешь глаза и жалеешь, что получилось проснуться
В космосе столько массивных тел, ни одно не смогло на тебя пиздануться
Это просто тоска, это просто усталость
Петля затянулась, самую малость

1)--15-14----------15-14------------------------------------------
2)--------12----12-------13-12----1210/12-12----12--15-13-12-----
3)---------------------------------------------------------11-12--
4)----------------------------------------------------------------
5)----------------------------------------------------------------
6)----------------------------------------------------------------

Кассета играла вперёд, теперь мотает обратно
Я вижу на утреннем солнце только тёмные пятна

Если утро – это лезвие «Спутник», чиркает по телу, наслаждается болью
То вечер предательски смотрит в глаза, натирая порезы поваренной солью
Это просто тоска, это просто усталость
Петля затянулась, самую малость

Кассета играла вперёд, теперь мотает обратно
Я вижу на утреннем солнце только тёмные пятна 
Наверх