Аккорды «Björk»

Björk
Бьорк (полное имя — Бьорк Гудмундсдоттир, исл. Björk Guðmundsdóttir, родилась 21 ноября 1965 года в Рейкьявике, Исландия) — исландская певица, музыкант, композитор и автор песен, актриса, лауреат множества премий. Её песни относят ко многим жанрам и стилям, среди которых альтернативный рок, трип-хоп, джаз, электроника, инди-поп, этника и классическая музыка. Музыкальная карьера Бьорк началась, когда ей было 11 лет. Один из учителей послал запись песни в исполнении Бьорк на тогда ещё единственную… Читать полностью... Бьорк (полное имя — Бьорк Гудмундсдоттир, исл. Björk Guðmundsdóttir, родилась 21 ноября 1965 года в Рейкьявике, Исландия) — исландская певица, музыкант, композитор и автор песен, актриса, лауреат множества премий. Её песни относят ко многим жанрам и стилям, среди которых альтернативный рок, трип-хоп, джаз, электроника, инди-поп, этника и классическая музыка. Музыкальная карьера Бьорк началась, когда ей было 11 лет. Один из учителей послал запись песни в исполнении Бьорк на тогда ещё единственную радиостанцию Исландии, которая включила песню в эфир. После этого ей предложили контракт на запись альбома, и в 1977 году она записала свой дебютный альбом с помощью отчима, который играл на гитаре. На альбоме присуствуют исландские детские песни, и кавер-версии таких популярных песен, как «The Fool on the Hill» (The Beatles) на исландском. Альбом стал платиновым в Исландии. В возрасте 14 лет она организовала панк-группу под названием «Spit and Snot», а вскоре джаз-фьюжн-проект «Exodus» (1979). В 1981 году Бьорк и басист «Exodus» Якоб Магнуссон (Jakob Magnússon) образовали группу Jam-80, вскоре ставшую «Tappi Tíkarrass». Этот проект выпустил сингл «Bítið Fast í Vítið» в том же году, и альбом «Miranda» в 1983-м. После этого вместе с Эйнар Ёрн Бенедиктссон и Тором Элдоном (Þór Eldon, позже был её мужем, у них родился сын Синдри в 1986 году) она организовала группу Kukl, плавно переросшую в The Sugarcubes летом 1986 года. Эти коллективы выпустили несколько альбомов альтернативной музыки. The Sugarcubes были весьма успешной альтернативной группой, в том числе в Великобритании и США, ими заинтересовались мейджор-лейблы. Параллельно работе с Sugarcubes, Бьорк записала джазовый альбом «Gling-Gló» с «Trio Guðmundar Ingólfssonar» и приняла участие в записи альбома «Ex:el» электронного проекта 808 State. Sugarcubes распались в 1992 году. Участники группы имели совершенно разные амбиции, и решили разойтись, чтобы не рисковать своей дружбой, связывающей их по сей день. После распада Sugarcubes Бьёрк переехала в Лондон, где начала работать с продюсером Нелли Хупером (англ. Nellee Hooper), который, среди прочего, работал с Massive Attack. С ним Бьорк создала свой первый мировой хит «Human Behaviour». Последовавший сольный альбом Debut стал неожиданным успехом, получив множество хороших отзывов. В альбом вошли песни, написанные Бьорк начиная с подросткового возраста до самого момента записи и сотрудничества с Хупером. Успех альбома «Debut» сделал возможным совместную работу с различными, в том числе очень известными, музыкантами. Бьорк записала песню «Play Dead» c Дэвидом Арнольдом (англ. David Arnold) для фильма 1993 года «The Young Americans», присутствует на двух композициях альбома Трики «Nearly God» и на одном трэке альбома «Not For Threes» (1997) проекта Plaid, вышедшего на Warp Records. Она также написала песню «Bedtime Story» для альбома Мадонны 1994 года «Bedtime Stories». В 1994 году Бьорк возвращается в студию для работы над следующим альбомом. Альбом «Post» (1995) создаётся при участии Нелли Хупера, Трики, Graham Massey из 808 State, и Howie B. Как и «Debut», «Post» частично состоял из песен, написанных в течение нескольких лет. Альбом поднялся до второго места в британских чартах и стал платиновым в США. В это же время Бьорк выступила на MTV Unplugged. В 1997 году вышел релиз «Telegram», состоящий из ремиксов песен с «Post» и ранее не выходившей на альбомах песни «My Spine». Альбом Homogenic (1997) стал поворотным в творчестве Бьорк. Он отличается от предыдущих концептуальностью и более смелыми экспериментами. В 2000 г. вышел фильм Ларса фон Триера «Танцующая в темноте» (англ. Dancer in the Dark), в котором Бьорк сыграла главную роль – иммигрантки из Чехословакии Сельмы и к которому написала музыку (саундтрек выпущен под названием «Selmasongs»). Фильм был удостоен главного приза Каннского кинофестиваля — «Золотой пальмовой ветви», а Бьорк получила приз фестиваля как лучшая актриса. На альбоме «Vespertine» (2001) присутствуют камерный оркестр, хоры, новая электроника (при участии группы Matmos). В последующем турне Бьорк выступала в театрах и операх Европы и Северной Америки вместе с Matmos, Zeena Parkins, гренландским хором и малым составом симфонического оркестра. До конца 2001 года было продано 2 миллиона экземпляров «Vespertine» В 2002 году вышли ретроспективный бокс-сет «Family Tree» (на нём присутствуют и ранее неопубликованные композиции) и ретроспективный сборник «Greatest Hits». В 2003 вышел бокс-сет «Live Box» из четырёх дисков с концертным материалом и DVD. В 2004 годы вышел очередной альбом — «Medúlla», музыкальной основой которого является вокал. Большинство звуков на нём являются обработанным вокалом. В августе 2004 года Бьорк исполнила песню «Oceania» с альбома «Medúlla» на открытии Летних Олимпийских игр в Афинах В 2005 году вышел сборник ремиксов на песню «Army of me» (1995) под названием «Army of Mixes» с целью помочь жертвам цунами в Индийском океане (конец 2004 года). К январю 2006 года было собрано около £250,000 для поддержки деятельности UNICEF в регионе, пострадавшем от цунами. В том же 2005 году вышел саундтрек «Drawing Restraint 9» к одноимённому фильму друга Бьорк Мэттью Барни (англ. Matthew Barney). 2 июля 2005 года она приняла участие в международной серии фестивалей «Live 8», выступив в Японии. Новый диск под названием "Volta" Бьорк выпустила 7 мая, и он включил в себя 10 композиций. В работе над этим диском, как и в случае с предыдущим «Medulla», приняла участие интернациональная компания приглашенных исполнителей, в том числе вокалист американской группы Antony and the Johnsons Энтони Хэгерти, барабанщик/вокалист нойз-рокового дуэта Lightning Bolt Брайан Чипэндейл и знаменитый рэппер и продюсер Тимбаланд. Кроме того, посильный вклад в запись альбома внесли также участник британской техно-группы LFO Марк Белл, барабанщик Six Organs Of Admittance Крис Корзано, китайский инструменталист Мин Ксяо-Фен и африканские музыканты Тумани Диабате и Konono No 1 (лауреат прошлогоднего конкурса BBC World Music Award). В некоторых треках задействован духовой исландский оркестр. Дискография Björk (1977, издан только в Исландии) Debut (1993) Post (1995) Telegram (1996, сборник ремиксов с альбомов Debut и Post) Homogenic (1997) Selmasongs (2000, саундтрек к/ф Dancer in the Dark) Vespertine (2001) Medúlla (2004) Drawing Restraint 9 (2005, саундтрек к/ф Drawing Restraint 9) Volta (2007) Biophilia (2011) Жанр: поп Поджанры: электроника, хип-хоп, трип-хоп, ворлд, джаз, авангард, современная классика Официальный сайт Bjork Bjork на сайте MySpace Скрыть...
Популярные аккорды Björk:
алфавиту | просмотрам | случайно
  • most of the song is this:
    G|------------------|
    D|-7-7--------------|
    A|-----5-5-6-6-0-0--|
    E|------------------|
    
    but near the end it does this a few times:
    G|------------------|
    D|-7-7--------------|
    A|-----5-6-5-6-0-0--|
    E|------------------|
    
    and…
  • Intro
    
    Gm# A B Cm#
    E|-----------------------|
    B|-----------------------|
    G|--8--9-8-6--4--6--4--6-|
    D|-----------------------|
    A|-----------------------|
    E|-----------------------|
    
    Verse
    
    Gm# A Gm# A Gm#
    All these accidents,…
  • Tuning: C.A.D.G
    
    (Piano Part)
    
    G|--------------------|
    D|--------------------|
    A|--------------------|
    C|-12*--15*--12*--14*-|
    
    G|--------------------------------------------|
    D|--------------------------------------------|
    A|--------------------------------------------|
    C|-12-0-12-0-12-0-12-0-14-0-14-0-14-0-14-0-12-|
    
    G|-----|
    D|-----|
    A|-----|
    C|-12~-|
    
    (Violin…
  • Bells intro
    E|-13-11-------14-11-13-11-------13-11----------------5---|
    B|-------14-12-------------14-12-------14-12------------8-|
    G|--------------------------------------------------------|
    D|--------------------------------------------------------|
    A|--------------------------------------------------------|
    E|--------------------------------------------------------|
    
    Verse
    Dm…
  • Eb Cm
    His embrace -- a fortress
    Eb Cm
    It fuels me and places
    G G#
    A skeleton of trust, right beneath us
    G G#
    Bone by bone, and stone by stone; if you ask yourself
    
    Gm G#
    Now carefully -- and patiently
    Gm
    Who is it?
    
    Eb Cm
    Who…
  • F C#
    you'll be taken care of
    F#
    you'll be given love
    F C#
    you have to trust it
    F#
    
    maybe not from the sources
    F# F F#
    you have poured yours
    F# F
    maybe not from the directions
    F# F F#
    you are staring at
    F
    
    trust your head…
  • verses: ("you're alright...")
    G|-------------|
    D|-----75------| [ * = sometimes the note before this one ]
    A|--030--0300--| [ is held out and the * note is not played ]
    E|----------*--|
    
    chorus: ("and if you complain...")
    G|------------------|
    D|------------------|…
  • E|-----------------------------------------------------------------------|
    B|-----4-------4-----4-----4--------3-------3------4--------3----------8-|
    G|-----5-------5-----5-----5--------5-------5------5--------5----------7-|
    D|-----------------------------------------------------------------------|
    A|---3-----------3------------3-5-------------5-------5-5----------6-----|
    E|-------3-3-----------3-3------------5-5--------------------------------|
    
    E|-----------------------------------------------------------|
    B|--------8-------8--------8-------3--------3------4-------3-|
    G|--------7-------7--------7-------5--------5------5-------5-|
    D|-----------------------------------------------------------|
    A|------------6----------------5---------------5------5-5----|
    E|---6-6------------6-6---------------5-5--------------------|…
  • intro(some type of woodwind transcribed for guitar)-
    E|---------------------------------------------------|
    B|---------------------------------------------------|
    G|-----------------15---------------15---------------|
    D|--13----------13----12---------12-----10-----------|
    A|-----------13--------------13---------------11--13-|
    E|---------------------------------------------------|
    
    After…
  • G Ab
    If travel is searching
    G Ab
    And home what's been found
    G Ab
    I'm not stopping
    
    G Ab
    I'm going hunting
    G Ab
    I'm the hunter
    G Ab
    I'll bring back the goods
    G Ab
    But I don't know when
    
    Ab Eb
    I thought I could organise freedom
    Ab…
  • main:
    
    G|------------------------|
    D|--7----------7----------|
    A|----5-6--7-----5-6--7---|
    E|----------------------5-|
    
    in some parts only:
    G|-----------|
    D|--7--------|
    A|----5-6--7-|
    E|-----------|
    
  • G|-----------------|
    D|-----------------|
    A|-0-0-----0-3-0---|
    D|-----0-3-------3-|
    
  • verses
    G|-------------|
    D|--2----------|
    A|----00-2-0---|
    E|-----------3-|
    
    G|-------------|
    D|--2----------|
    A|----0-2-0----|
    E|----------0--|
    
    chorus ("it takes courage...")
    G|--------------------|
    D|--------5-5---------|
    A|----------------2-2-|
    E|--5-5--3-3--5-5-----|…
  • Bb C Bb C
    All that she said was true
    Bb C Bb C
    All that she said was true
    Bb C
    Give her some time
    Bb C
    Give her some space
    Bb C Bb C
    All that she said was true
    
    Gm Am Gm Am
    All that she meant was good
    Gm Am Gm Am
    All that…
  • E|--------------------------------------------------------------------|
    B|--------------------------------------------------------------------|
    G|--------------------------------------------------------------------|
    D|-------------------------11-----------------------------------------|
    A|---7---9---10---12--------------------OR--------------------------4-|
    E|-----------------------------------------------0---2---3---5--------|…
  • Intro: D - G - D - G - D - G - D - G
    
    Verse 1
    
    D G
    All my bags are packed I'm ready to go.
    D G
    I'm standing here out side your door.
    D G A7
    I hate to wake you up to say goodbye.
    D G
    But the dawn is breaking it's early morn.
    D…
  • 1 2 3 4 (fourths)
    -> piano -> 1234123412341234 (sixteenths)
    
    G ----|---------------|---------------|------------3--|---------------| (1)
    D ----|1-------0------|---------------|--------3------|1-------1---2--|
    A ----|---------------|3-------2------|1--------------|---------------|
    E…
  • main riff
    E|-----------|
    B|-----------|
    G|-----------|
    D|---9-8-----|
    A|-------8-9-|
    E|-7---------|
    
    "Possibly Maybe...)
    E|-----|
    B|-----|
    G|-----|
    D|-----|
    A|-----|
    E|-9---|
    
    End Verse:
    E|------------------|
    B|------------------|
    G|------------------|
    D|------------------|
    A|------------------|
    E|-9---9-9---9--9-9-|…
  • Bb C A Bb
    / / // / /
    
    Bb C A Bb
    Born stubborn me
    Bb C A Bb
    Will al- ways be
    Bb C A Bb
    Before you count a-one-two-three
    Bb C A
    I will grow my own private branch
    Bb C A
    Of this tree
    
    Bb C A
    You gardener, you
    Bb C A
    Discipliner,…
  • Verse
    G||----------------|
    D||----------------|
    A||----------------|
    E||----------------|
    B||-4----3----1----|
    
    Chorus(the rytham of this changes when the drums do)
    G||-----------------------------------------|
    D||-----------------------------------------|
    A||------1----3----1---------1----3----5----|
    E||-4-------------------4-------------------|
    
    Thats…
Наверх