Аккорды БКМСБ - #13 (Лишь твой)

Добавлено: @romashka
Дата добавления: 13 Мая 2019г.
Рейтинг:
0.0
Просмотров: 67
Транспонировать - +
Intro:
B|--6-6-6-|--5-5-5-|--6-6-6-|--6-6-6-|
G|-7-7-7--|-6-6-6--|-7-7-7--|-7-7-7--|
D|8-8-8---|7-7-7---|0-0-0---|0-0-0---|
A|--------|--------|--------|--------|

B|--8-8-8-|--8-8-8-|--6-6-6-|--6-6-6-|
G|-7-7-7--|-6-6-6--|-7-7-7--|-7-7-7--|
D|8-8-8---|7-7-7---|0-0-0---|--------|
A|--------|--------|--------|8---8---|

Куплет 1:
B|--6-6-6-|--5-5-5-|--6-6-6-|--6-6-6-|
G|-7-7-7--|-6-6-6--|-7-7-7--|-7-7-7--|
D|8-8-8---|7-7-7---|0-0-0---|0-0-0---|
A|--------|--------|--------|--------|
А может быть эти все слова, сказанные нами с горяча

B|--8-8-8-|--8-8-8-|--6-6-6-|--6-6-6-|
G|-7-7-7--|-6-6-6--|-7-7-7--|-7-7-7--|
D|8-8-8---|7-7-7---|0-0-0---|--------|
A|--------|--------|--------|8---8---|
Пусть утекают как вода

B|--6-6-6-|--5-5-5-|--6-6-6-|--6-6-6-|
G|-7-7-7--|-6-6-6--|-7-7-7--|-7-7-7--|
D|8-8-8---|7-7-7---|0-0-0---|0-0-0---|
A|--------|--------|--------|--------|
И пусть будет первый шаг за мной, зато теперь я герой

B|--8-8-8-|--8-8-8-|--6-6-6-|--6-6-6-|
G|-7-7-7--|-6-6-6--|-7-7-7--|-7-7-7--|
D|8-8-8---|7-7-7---|0-0-0---|--------|
A|--------|--------|--------|8---8---|
Лишь твой...

Проигрыш:
B|--6-6-6-|--5-5-5-|--6-6-6-|--6-6-6-|
G|-7-7-7--|-6-6-6--|-7-7-7--|-7-7-7--|
D|8-8-8---|7-7-7---|0-0-0---|0-0-0---|
A|--------|--------|--------|--------|

B|--8-8-8-|--8-8-8-|--6-6-6-|--6-6-6-|
G|-7-7-7--|-6-6-6--|-7-7-7--|-7-7-7--|
D|8-8-8---|7-7-7---|0-0-0---|--------|
A|--------|--------|--------|8---8---|

A#(VI) A(V) Dm(V) F

Куплет 2:
A#(VI) A(V) 
И пусть будет первый шаг за мной
Dm(V) F
Зато теперь я герой
A#(VI) A(V) Dm(V) F
Лишь твой

A#(VI) A(V) 
А может быть эти все слова
Dm(V) F
Сказанные нами с горяча
A#(VI) A(V) Dm(V) F
Пусть утекают как вода

A#(VI) A(V) 
И пусть будет первый шаг за мной
Dm(V) F
Зато теперь я герой
A#(VI) A(V) Dm(V) F
Лишь твой

A#(VI) A(V) Dm(V) F 

A#(VI) A(V) Dm(V) F 
            Лишь твой
comments powered by Disqus
Наверх