Аккорды Black Strobe - I'm a Man

Добавлено: @romashka
Дата добавления: 10 Сентября 2019г.
Рейтинг:
0.0
Просмотров: 52
Транспонировать - +
Tuning: DADGBe

00:00 to 00:33 Intro:
Guitar
e|-----------------|
B|-----------------|
G|-----------------|
D|-----------------|
A|-----------------|
D|--2--7--5--2-----|

Bass
G|-----------------|
D|-----------------|
A|-----------------|
D|--2--7--5--2-----|

00:35 to 00:51 Verse:
Guitar I & Guitar II (the same but Guitar II with drive)
e|------------------------------------------------------------------|
B|------------------------------------------------------------------|
G|------------------------------------------------------------------|
D|------------------------------------------------------------------|
A|------------------------------------------------------------------|
D|--2--7--5--2-2--2--2--2--2--2-2--5--7--2-2--2--2--2--2--2-2--5--7-|

Bass (Repet only this note during the verse)
G|---------------------------------------------------------------------|
D|---------------------------------------------------------------------|
A|---------------------------------------------------------------------|
D|--2--7--5--2----------------2-2--5--7--2----------------2-2--5--7--2-|

00:52 to 01:04
Guitar I
e|-------------------------------------------------------------------|
B|-------------------------------------------------------------------|
G|-------------------------------------------------------------------|
D|-------------------------------------------------------------------|
A|-------------------------------------------------------------------|
D|--2--7--5--2-2--2--2--2--2--2-2--5--7--2-2--2--2--2--2--2-2--5--7--|

Guitar II (Black Strobe use some strange effect, we use guitar)
e|-------------------------------------------------------------------|
B|-------------------------------------------------------------------|
G|-------------------------------------------------------------------|
D|--2--7--5--2-2--2--2--2--2--2-2--5--7--2-2--2--2--2--2--2-2--5--7--|
A|--2--7--5--2-2--2--2--2--2--2-2--5--7--2-2--2--2--2--2--2-2--5--7--|
D|--2--7--5--2-2--2--2--2--2--2-2--5--7--2-2--2--2--2--2--2-2--5--7--|

Bass
G|-------------------------------------------------------------------|
D|-------------------------------------------------------------------|
A|-------------------------------------------------------------------|
D|--2--7--5--2-2--2--2--2--2--2-2--5--7--2-2--2--2--2--2--2-2--5--7--|

The rest of song (from 01:05 to 03:21)is equal, sometimes the Chourse changes in:
e|---------------------------------------|
B|---------------------------------------|
G|-----------5-5--5--5--5--5-------------|
D|--2--7--5--5-5--5--5--5--5--2-2--5--7--|
A|--2--7--5--3-3--3--3--3--3--2-2--5--7--|
D|--2--7--5-------------------2-2--5--7--|

03:22 to 04:30
Guitar I (Change for the rest of the song, Guitar II and Bass are the same)
e|--------------------------------------|
e|--------------------------------------|
B|--------------------------------------|
G|---------------------------------5----|
D|----4-3---4-3-2-3----3-4---3-4-2------|
A|--2-----2----------2-----2------------|
D|--------------------------------------|

| /  slide up
|   slide down
| h  hammer-on
| p  pull-off
| ~  vibrato
| +  harmonic
| x  Mute note
comments powered by Disqus
Наверх