Аккорды «Blackmore's night»

Blackmore's night
Blackmore’s Night — британская фолк-рок-группа, основанная в 1997 году бывшим гитаристом «Deep Purple» и «Rainbow» Ричи Блэкмором (акустические и электрические гитары) и его женой Кэндис Найт (вокал). Музыкальной основой и главным вдохновением музыкантов является музыка эпохи Возрождения (Ренессанса). История Британец Ричи Блэкмор и американка Кэндис Найт познакомились в 1989 году, когда Ричи ещё играл в Deep Purple, и вскоре они стали парой. Среди прочего, у них обнаруживается общий интерес… Читать полностью... Blackmore’s Night — британская фолк-рок-группа, основанная в 1997 году бывшим гитаристом «Deep Purple» и «Rainbow» Ричи Блэкмором (акустические и электрические гитары) и его женой Кэндис Найт (вокал). Музыкальной основой и главным вдохновением музыкантов является музыка эпохи Возрождения (Ренессанса). История Британец Ричи Блэкмор и американка Кэндис Найт познакомились в 1989 году, когда Ричи ещё играл в Deep Purple, и вскоре они стали парой. Среди прочего, у них обнаруживается общий интерес к музыке эпохи ренессанса. Вскоре, после выхода из Deep Purple, Блэкмор возрождает Rainbow, и записывает с ними один альбом «Stranger in Us All» (1995), на котором Кэндис была бэк-вокалисткой, а также написала несколько текстов. В 1997 году Ричи и Кэндис объявили о новом проекте «Blackmore’s Night», в котором Кэндис естественным образом становится вокалисткой. Музыканты используют инструменты и сценические костюмы эпохи ренессанс. Музыка этой эпохи оказала основное влияние на творчество группы, но всё же в песнях присутсвуют и элементы рок-музыки, которой Блэкмор занимался на протяжении 30 лет до того. Иногда он меняет исторические акустические струнные инструменты на электрогитару, на концертных выступлениях звучат немногие песни Deep Purple или Rainbow (как правило, «Black Night» и фрагменты из прочих композиций). От чисто акустического, "менестрельского" звучания первых альбомов группа со временем перешла к более ритмичному и стала активнее использовать электрогитары и ударные инструменты на последних альбомах. В октябре 2008 года Ричи Блэкмор и Кэндис Найт поженились и с тех пор живут в официальном браке! Состав группы Ричи Блэкмор — гитара, мандолина, домра Кэндис Найт — вокал, рожок, флейта Бард Дэвид из Ларчмонта (Дэвид Барановски) — клавишные Сёстры Луны: Леди Маделин и Леди Нэнси (Маделин и Нэнси Поснер) — бэк-вокал Сквайр Малькольм из Ламли (Малькольм Дик) — ударные ДИСКОГРАФИЯ Альбомы: Shadow of the Moon (1997) Under a Violet Moon (1999) Fires at Midnight (2001) Ghost of a Rose (2003) The Village Lanterne (2006) Winter Carols (2006) Secret Voyage (2008) Autumn Sky (2010) Dancer & the Moon (2013) Концертные записи: Past Times with Good Company (2003) Paris Moon (2007) A Knight In York (2012) Сборники: Beyond the Sunset: The Romantic Collection (2004) Видео DVDs: Castles and Dreams (2005) Paris Moon (2007) A Knight In York (2012) The Beginning (2012) Скрыть...
Популярные аккорды Blackmore's night:
алфавиту | просмотрам | случайно
  • Am               F
    My diamond's clouded over
             G                  C
    Where it used to shine like light
            F                 Dm     
    And the day keeps running faster
    Am
    To the arms of night…
  • (Capo 2)
    
    [E--------------0h-2----3-----2h3h2h0--------------0----------------
    B-------------------------0-----------3-----------1----------------
    G------------------------------------------0------0----------------
    D----------------------2--------------------------2----------------
    A-------------------------------------2-----------3----------------
    E------------------------------------------------------------------
    
    -----------------------------------------0h-2----3-----2h3h2h0------------
    --1----1h0---------0--------------------------------0-----------3---------
    --2--------2--0-------2h0---2----------------------------------------0----
    --2-------------------------0--------------------2------------------------
    --0-------------------------------------------------------------2---------
    --------------0-------------2---------------------------------------------
    
    --0-----------------------------------------------------------
    --1------------------1----1h0---------------------------------
    --0------------------2--------2--0----2------1----------------
    --2------------------2----------------0------2----------------
    --3------------------0----------------------------------------
    ---------------------------------0----2------0----------------
    
    ------------------------------------------------------------------
    --1---------3------1----0---------1------0--------------0---------
    --2---------2-----------0---------0-----------2----2----2---------
    --2----------------------------------------------------------2----
    --0---------------------------------------------------------------
    -------3----2-----------3----1----0-----------1----0----0---------
    
    ---------------0----------1h-0--------------------0---------------------
    --0h1h0---3----1----------------3--1--0---------------------1-----------
    -------------------------------------------------------4----2----4h2h0--
    --------------------------0---------------------------------2-----------
    --0-------2----3--------------------------------------------0-----------
    --------------------------------------3----1------4---------------------
    
    ---------------------------------------0h-2----3-----2h3h2h0------------
    -------0--1--0------------------------------------0-----------3---------
    --2-----------------2h1---2----------------------------------------0----
    -----------------------------------------------2------------------------
    --------------------------0-----------------------------------2---------
    --1----------0----------------------------------------------------------
    
    --0---------------------------------------------------------0h-2--
    --1------------------1----1h0---------0---------------------------
    --0------------------2--------2--0-------2h0---2------------------
    --2------------------2-------------------------0------------------
    --3------------------0--------------------------------------------
    ---------------------------------0-------------2------------------
    
    --3-----2h3h2h0--------------0--------------------3----2h3h2-0------------
    -----0-----------3-----------1----1/-----8----------------------4----7/---
    ----------------------0------0--------------------------------------------
    --2--------------------------2--------------------2-----------------------
    -----------------2-----------3----------------------------------2---------
    --------------------------------------------------------------------------
    
    --0----------------
    --0----------------
    --1----------------
    --2----------------
    --2----------------
    --0----------------]…
  • Am        Dm   G      Am         F     G           Am
    Somewhere in a market square The cobblestone still shine
    Am     Dm     G        Am            F       G      Am
    Glassy eyes behold the sight Through another cup of…
  • Am            G
    Dancing to the feel of the drum 
    Am                 G
    Leave this world be-hind
    Am                    G
    We'll have a drink and toast to ourselves
    F       G      Am
    Under a Violet Moon 
     
    Am…
  • Am
    Once written in the stars
    F           E
    A pathway set in stone
    Am
    A candle in the night
    F         G
    To guide your way back home
    E         Am
    Then somewhere in your memory
    F        E
    Calling from afar
    Am
    It's…
  • Intro D G A F#m Bm Em A D
     
    D       G
    As I went a walking
    A         D
    One morning in spring
    Bm         G
    I met with some travelers
    A           D
    On an old country lane
    D       G
    One was an old man
    A        D
    The…
  • Вступление:	F G Am    Dm C  G } x2
    
     C Em   F
    Be mine tonight,
         G        C
    We'll travel through all our memories,
         Am       D7     G
    In our own little space in time,
         Am D7     G
    You've always been mine...…
  • Chorus:		
    Em Em9 Em Em
    Wish You Were Here...
    C       D
    Me, oh, my country man,
              G  Em Bsus4
    Wish You Were Here...
     Em Em9 Em Em
    I Wish You Were Here...
    
            C           D          G
    Don't you know,…
  • Intro: Dm Bb C A
     
    Dm     Am
    Twisting turning
    Dm        Am
    The winds are burning
    Bb       A
    Leaving me without a name
    Bb          A
    How will we ever find our way...
    Snow was falling
    I could hear the frightened…
  • Intro: C Em F G }x2
    
    C           C/Bm  Am
    Come gather round people wherever you roam
       C         Am   G
    And admit that the waters around you have grown
       C         C/Bm       Am
    And accept it that soon you'll be…
  • Am         C
    There are shadows in the sky
    G
    Dancing in the air
    Am        C
    Calling to my heart
          G    E
    Saying, "If you dare,
    Am        C
    We're running fast
    G
    We're running far
    Am     G      (E)     Am
    Trying…
  • C        Dm
     I was told once, by a friend of mine,
     Am       C   G
     She had seen an olden sign,
     C       Dm
     She said she was not from this time,
     C   G     C
     And did I feel the same?
     So I told her, "Yes", I knew…
  • A
    Down in the village streets
       D         E
    The air is full of wonder
    A
    Fair smiles greet
       D     E    A
    The crowning of the king…
    Come hither, gather round
    A joyous time's upon us
    trumpets sound
    The crowning…
  • [E--------------------0-----1--0------------------------
    B----------1-----3---1------------3-----0------------0-
    G----2-----2---------0------------0---------0-----2----
    D---------------------------------0---------0----------
    A----------0---------3---------------------------------
    E---------------------------------3---------3----------…
  • C         F         C
    When the sun sets over cherry blossom skies
     C C/Bm Am     C      G/Bb
    And the twilight fills the air
         C        F          C
    You can see the snow on the mountaintops
       C C/Bm Am    C   Am
    Through…
  • Intro: Am C G Em Am
    
    Am	 Am/B	  C
    In the shadow of the moon,
    G      Am - Em
    She danced in the starlight
    Am        Am/B    C
    Whispering a haunting tune
    G Em  Am
    To the night...
    Am       Am/B    C
    Velvet skirts…
  • Am
    I saw three ships a sailing in
       G       Am
    From across the sea
    Am           G  Am
    Strangers were welcome but for curiosity
    Am
    But come they did
    Dm
    And when they did
    Am         G
    Ready they did stand
    Am
    And…
  • [------------------------------------------------------------0-----------
    -----------0----------------------0--2----------------0--4-----4--2--0--
    --------------3----------------1----------------------------------------
    --------6-----1-------------1----------------------4--------2-----------
    -----6------------------------------------------2-----------------------
    --4----------------------4-----------2----------------------------------
    
    --2--0-------------------4--2--0--4--2--0---------0--------0-----------
    --------4--0--2----------------------------4---------4--2-----4--------
    -----------------------------------------------------------------------
    -------------------------2-----------1---------------------------------
    --2-----------------------------------------------4-----------2--------
    --------------2--------------------------------------------------------
    
    --4--2--0--------------------------------------------------2--2-6-9--------
    -----------4--2--0---------------------0-2---------------2-----------------
    --------------------3--1-------3-----3-----------------3-------------------
    --2-------------------------4-----4----------------------------------------
    ---------------------------------------------------------------------------
    ----------------------------------------------------2----------------------
    
    --9--7--6--4--6-----------------------------------------------------------
    -----------------7-------------7---------------------------------------2--
    --------------------6-------6-----6----------------8----8--6--4--3--4-----
    -----------------------8-------------8------------------------------------
    ----------------------------------------9---------------------------------
    ---------------------------------------------------7----------------------
    
    -----0--2--0---0-----------------------------------------0--2-------------
    --4----------4---4----2------4----4--2--0-----0--2----4----------2--------
    -------------------------------------------3------------------------------
    --------------------------------------------------------------------------
    --2--------------------------2------------------------2-------------------
    ----------------------2------------------------------------------2--------
    
    ------------------------------0--2--0---0------------------------------------
    --4----4--2--0-----0--2----4----------4---4----2------4----4--2--0-----0--2--
    ----------------3---------------------------------------------------3--------
    -----------------------------------------------------------------------------
    --2------------------------2--------------------------2----------------------
    -----------------------------------------------2-----------------------------
    
    -----0--2------------------2-------------2-----------2-----------
    --4------------2--------2-----2-----2-------2-----2-----2-----2--
    ---------------------3-----------3-------------3-----------3-----
    ------------------4----------------------------------------------
    --2--------------------------------------------------------------
    -----------------------------------------------------------------
    
    --------------------------
    --------0--4--------0--4--
    --------------------------
    -----4-----------4--------
    --2-----------2-----------
    --------------------------
    
    --------------2-----2--------------------------------------------------------
    --------0--4-----0--2---------------4--------0--4----------0--4-----------2--
    --------------------3------------4--------1----------------------------3-----
    -----4--------------4---------4-------------------------4-----------4--------
    --2-----------------4------2-------------------------2-----------------------
    --------------------2------------------4-------------------------2-----------
    
    ----------------------------------------2-----2------------------------------
    --------0--4--------0--4----------0--4-----0--2---------------4--------0--4--
    ----------------------------------------------3------------4--------1--------
    -----4-----------4-------------4--------------4---------4--------------------
    --2-----------2-------------2-----------------4------2-----------------------
    ----------------------------------------------2------------------4-----------
    
    -----0--2------------------2-------------------------2--------
    --4---------------------2-----2-------------------2-----------
    --4------------------3-----------3-------------3--------------
    --4---------------4-----------------4-------4-----------------
    --2-----------------------------------------------------------
    ---------------2-------------------------2--------------------
    
    --4--2--0-----------0-------2--0---0-------------------
    -----------4--2--4-----4---------4---4--2--0--2--4--0--
    -------------------------------------------------------
    --2----------------------------------------------------
    ----------------------------2--------------------------
    --------------2----------------------------4-----------
    
    --0---0------------------------0-----------7---------------------7----------
    ----4---4--2--0-----0--2----------4--2--0---------------------7-----7-------
    -----------------3--------3--------------------------------8-----------8----
    --2-------------------------------------------------------------------------
    -------------------------------2--------------------------------------------
    -----------------2------------------------------------7---------------------
    
    --7-----------9--6-----6---------------7----------------0----------2----
    -----9-----9--------7------------0--4----------------0----------2-------
    --------9---------------------------------------------------------------
    ------------------------------------------------------------------------
    --7-----------------------------------------------7---------------------
    --------------2-------------7--------------------------------2----------
    
    ------------------------0-----0-----------------------------------------
    --------0-------------------4---4----2--0-----------------0-----0--2----
    -------------2-----------------------------3------1----1-----3----------
    -----4------------------------------------------------------------------
    --2---------------------------------------------------------------------
    ------------------------------------------------------------------------
    
    --------------2-------------------------2---------------------2--7----------
    --------0--2-----2--0-------------0--2-----2--0------------4--------7-------
    -----------------------------------------------------------------------8----
    -----4-----------------4-------4-----------------4--------------------------
    --2-------------------------2-------------------------2---------------------
    ----------------------------------------------------------------------------
    
    --7-----------9--6-----6---------------7----------------0----------2----
    -----9-----9--------7------------0--4----------------0----------2-------
    --------9---------------------------------------------------------------
    ------------------------------------------------------------------------
    --7-----------------------------------------------7---------------------
    --------------2-------------7--------------------------------2----------
    
    ------------------------0-----0-----------------------------------------
    --------0-------------------4---4----2--0-----------------0-----0--2----
    -------------2-----------------------------3------1----1-----3----------
    -----4------------------------------------------------------------------
    --2---------------------------------------------------------------------
    ------------------------------------------------------------------------
    
    --------------2-------------------------2-----------
    --------0--2-----2--0-------------0--2-----2--0-----
    ----------------------------------------------------
    -----4-----------------4-------4-----------------4--
    --2-------------------------2-----------------------
    ----------------------------------------------------
    
    ----------------------------------------2-----2------------------------------
    --------0--4--------0--4----------0--4-----0--2---------------4--------0--4--
    ----------------------------------------------3------------4--------1--------
    -----4-----------4-------------4--------------4---------4--------------------
    --2-----------2-------------2-----------------4------2-----------------------
    ----------------------------------------------2------------------4-----------
    
    ------------------------------------------------------------------2-----2----
    --------0--4-----------2----------0--4--------0--4----------0--4-----0--2----
    --------------------3---------------------------------------------------3----
    -----4-----------4-------------4-----------4-------------4--------------4----
    --2-------------------------2-----------2-------------2-----------------4----
    --------------2---------------------------------------------------------2----
    
    -------------------------------0--2------------------2-----------
    -----------4--------0--4----4---------------------2-----2--------
    --------4--------1----------4------------------3-----------3-----
    -----4----------------------4---------------4-----------------4--
    --2-------------------------2------------------------------------
    --------------4--------------------------2-----------------------
    
    --------------2------------------------------------------------------
    -----------2----------------------0----------------------0--2--------
    --------3----------------------1-----3----------------1--------------
    -----4----------------------1--------1-------------1-----------------
    ---------------------------------------------------------------------
    --2----------------------4----------------------4-----------2--------
    
    --------------0-------------2--0-------------------4--2--0--4--2--0-------
    --------0--4-----4--2--0----------4--0--2----------------------------4----
    --------------------------------------------------------------------------
    -----4--------2------------------------------------2-----------1----------
    --2-------------------------2---------------------------------------------
    ----------------------------------------2---------------------------------
    
    --0--------0-------------4--2--0-----------------------------------------
    -----4--2-----4-------------------4--2--0---------------------0-2--------
    -------------------------------------------3--1-------3-----3------------
    -------------------------2-------------------------4-----4---------------
    --4-----------2----------------------------------------------------------
    -------------------------------------------------------------------------
    
    ---------2--2-6-9----------9--7--6--4--6----------------------------------
    -------2----------------------------------7-------------7-----------------
    -----3---------------------------------------6-------6-----6--------------
    ------------------------------------------------8-------------8-----------
    -----------------------------------------------------------------9--------
    --2-----------------------------------------------------------------------
    
    ------------------------------------------------------------------
    ------------------------------------------------------------------
    ------------------------------------------------------------------
    --------------------------------------------------------1---------
    ------------6----4--6----7----6----4----------2------4-------2----
    --7------9--------------------------------------------------------
    
    -------------------------------------------------------------------
    -------------------------------------------------------------------
    -------------------------------------------------------------------
    ---------------------------------1-------1----2----1---------------
    -------2----4----------2------4------4------------------4--2--1----
    --4----------------------------------------------------------------
    
    ---------0-0-2------2-2---2----------------------------------
    ---------0-0-2------2-2---4----------------------------------
    -------------3------3-3---4----------------------------------
    ---------2-2-4------4-4---4----------------------------------
    -------------4------4-4---2----------------------------------
    --4----------2------2-2--------------------------------------
    
    ------------------------------0--2--0---0------------------------------------
    --4----4--2--0-----0--2----4----------4---4----2------4----4--2--0-----0--2--
    ----------------3---------------------------------------------------3--------
    -----------------------------------------------------------------------------
    --2------------------------2--------------------------2----------------------
    -----------------------------------------------2-----------------------------
    
    -----0--2-------------------------------------------0--2--0---0-----------
    --4----------2----------4----4--2--0-----0--2----4----------4---4----2----
    --------------------------------------3-----------------------------------
    --------------------------------------------------------------------------
    --2---------------------2------------------------2------------------------
    -------------2-------------------------------------------------------2----
    
    ------------------------------0--2--------------------------------------
    --4----4--2--0-----0--2----4----------2----------4----4--2--0-----0--2--
    ----------------3----------------------------------------------3--------
    ------------------------------------------------------------------------
    --2------------------------2---------------------2----------------------
    --------------------------------------2---------------------------------
    
    -----0--2--0---0-----------------------------------------0--2-------------
    --4----------4---4----2------4----4--2--0-----0--2----4----------2--------
    -------------------------------------------3------------------------------
    --------------------------------------------------------------------------
    --2--------------------------2------------------------2-------------------
    ----------------------2------------------------------------------2--------
    
    ------------------------------0--2--0---0------------------------------------
    --4----4--2--0-----0--2----4----------4---4----2------4----4--2--0-----0--2--
    ----------------3---------------------------------------------------3--------
    -----------------------------------------------------------------------------
    --2------------------------2--------------------------2----------------------
    -----------------------------------------------2-----------------------------
    
    -----0--2-------------------------------------------0--2--0---0-----------
    --4----------2----------4----4--2--0-----0--2----4----------4---4----2----
    --------------------------------------3-----------------------------------
    --------------------------------------------------------------------------
    --2---------------------2------------------------2------------------------
    -------------2-------------------------------------------------------2----
    
    ------------------------------0--2--------------------------------------
    --4----4--2--0-----0--2----4----------2----------4----4--2--0-----0--2--
    ----------------3----------------------------------------------3--------
    ------------------------------------------------------------------------
    --2------------------------2---------------------2----------------------
    --------------------------------------2---------------------------------
    
    -----0--2--0---0-----------------------------------------0--2-------------
    --4----------4---4----2------4----4--2--0-----0--2----4----------2--------
    -------------------------------------------3------------------------------
    --------------------------------------------------------------------------
    --2--------------------------2------------------------2-------------------
    ----------------------2------------------------------------------2--------
    
    ------------------------------0--2--0---0------------------------------------
    --4----4--2--0-----0--2----4----------4---4----2------4----4--2--0-----0--2--
    ----------------3---------------------------------------------------3--------
    -----------------------------------------------------------------------------
    --2------------------------2--------------------------2----------------------
    -----------------------------------------------2-----------------------------
    
    -----0--2-------------------------------------------0--2--0---0-----------
    --4----------2----------4----4--2--0-----0--2----4----------4---4---------
    --------------------------------------3------------------------------6----
    ------------------------1---------------------------2--4--2---------------
    --2--------------------------6--4--2--1--2--4----6--------------6----4----
    -------------2------------------------------------------------------------
    
    ------------------------------0--2--------------------------------------
    --4----4-----0-----0--2----4----------2----------4----4-----0-----0--2--
    ----------6-----3----------------------------------------6-----3--------
    ------------------------------2--4--------------------------------------
    --6----6--4--2--1--2--4----6----------4----------6----6--4--2--1--2--4--
    ------------------------------------------------------------------------
    
    -----0--2--0---0-----------------------------------------0--2-------------
    --4----------4---4-----------4----4-----0-----0--2----4----------2--------
    ----------------------6--------------6-----3------------------------------
    -----2--4--2---------------------------------------------2--4-------------
    --6--------------6----4------6----6--4--2--1--2--4----6----------4--------
    --------------------------------------------------------------------------
    
    ------------------------------0--2--0---0------------------------------------
    --4----4-----0-----0--2----4----------4---4-----------4----4-----0-----0--2--
    ----------6-----3------------------------------6--------------6-----3--------
    ------------------------------2--4--2----------------------------------------
    --6----6--4--2--1--2--4----6--------------6----4------6----6--4--2--1--2--4--
    -----------------------------------------------------------------------------
    
    -----0--2-------------------------------------------0--2--0---0-----------
    --4----------2----------4----4-----0-----0--2----4----------4---4---------
    --------------------------------6-----3------------------------------6----
    -----2--4-------------------------------------------2--4--2---------------
    --6----------4----------6----6--4--2--1--2--4----6--------------6----4----
    --------------------------------------------------------------------------
    
    ------------------------------0--2---------------2----------------
    --4----4-----0-----0--2----4----------2----------4----------------
    ----------6-----3--------------------------------4----------------
    ------------------------------2--4---------------4----------------
    --6----6--4--2--1--2--4----6----------4----------2----------------
    ------------------------------------------------------------------]…
  • C   C/Bm       Am   G     C   C/D C/E C G
    They say that it's always darkest right before the dawn
    C   C/Bm     Am  G F         G   C
    They say that I must be strong just to carry on
    C     C/Bm Am     G     C  C/D C/E…
  • F#
    To the days of Avalon
         B         Db
    Where magic rules as king
       B           Ebm
    The moon beneath the castle walls
    Db      F#
    As the nightingale sings...
    The golden bird
    He gave to me
    What happiness he brings
    Like…
  • Bm
    I stood out here once before
               F#m G Bm
    With my head held in my hands
    Bm
    For all that I had known of this place
               F#m G Bm
    I could never understand… 
    F#m   A      E          F#m
    On the hills…
  • Am
    Paint me a picture
       C     D  G   Am
    and hang it on the wall
    Am     C       D 
    Color is darkly, the lines
       G     Am
    will start to crawl
    F    G    Am
    Down...down...down...
    F     G       Am
    Spin me around…
  • 1-4-7-6-4-2-0------4-2-0----------------------------
    2----------------4-------4---2-5-4-2----------------
    3------------------------------------4-3-4-3h4p3-1~-
    4---------------------------------------------------
    5---------------------------------------------------
    6---------------------------------------------------…
  • Cm
    Underneath the harvest moon
    Where the ancient shadows will play and hide...
                    Bb Cm
    With a ghostly tune and the devil's pride...
    Cm
    "Stranger" whispered all the town
    Has he come to save us from Satan's…
  • F#
    Silent she rose
          D       F#
    From the cold desert sands
    D       Am
    Painted in shadows
    Bm       F#
    A dark caravan...
    Quiet as a whisper
    With moves like a cat
    She ruled like a storm cloud
    Her eyes glowing…
  • Cm           Fm     Cm
    Oh, to my dearest ruler and lord
    Fm     Eb
    Merciful husband
    Gm       Cm
    Nobelest of king...
    Your heart of gold has
    long since tarnished
    In my champer
    What will the morning bring?
    Ab…
  • Gm
    Is it powers of intuition?
    Fm     Gm
    Is it insecurity?
    Gm
    You know I can read your mind and
    Fm        Gm
    You have been deceiving me...
    Which face wears the masque this evening?
    When will your true colours show?
    Will…
  • Am	              G
    Bring to me all of my arrows
    Am
    Bring to me my crossbow too
    G	  	Am	
    I fear we might need them both
    C	   G     Am
    Before the night is through
     
    Am		           G
    Once a world of glittering hope
    Am
    This…
  • Bb       Eb
    I sing the praise of honored wars
      F        Bb
    of glory and of kings
    Bb         Eb
    The bravery of soldiers,
       F      Bb
    The joy that peace can bring
       Eb           Bb
    The captains on their way home,…
  • Cm
    A timeless and forgotten place,
    Ab         G
    The moon and sun endless chase
    Cm
    Each in quiet surrender
         Ab   G       Cm
    As the other reigns the sky…
    The midnight hour begins to laugh
    A summer evening's epitath
    The…
  • [E--7/-7h5h4/2-4-0--1-0h1h0-----0---------------------------------
    B--------------------------3-1---1---0h1h0-----------------------
    G------------------------------------------2h0-1----1------------
    D-------------------------------------------------3---3-2--------
    A----------------------------------------------------------------
    E-----------------------------------------------------------0----
    
    --0---------------------------------------------------------------------
    --0----------------------------------------0-------1--0--------------0--
    --1------------------------------------1----------------2--------0-----
    --2---------------------------------2-------------------------0--------
    ----------------------0--3--2--0----------------0-----------------------
    ----------------------------------4-------------------------3-----------
    
    -----0------------------------------------------------------------------
    --------3--1--0---------------------------------------------3--1--0-----
    -------------------2------2----1----2-------------------2-----------2--
    -----------------------------------------------0--2--3-----------------
    --3-----2--0------------------------0-----------------------------------
    --------------3----1------0---------------------------------------------
    
    --------------1--0----------------------0--5-----------
    -----------0--------3--1----0h1h0----1--------8--6--5--
    --1-----1-------------------------2--------------------
    -----2-------------------------------------------------
    -------------------------------------------------------
    -------------------------------------------------------
    
    -----------------10----------8--7-----7--10--13--12--10--
    --6--5h6h5----6--------------------8---------------------
    -----------7---------------------------------------------
    ---------------------------------------------------------
    ---------------------------------------------------------
    ---------------------------------------------------------
    
    --12--15--13h15h13h12-----12--10--8----7--8--7h8h7/5-------------
    ----------------------15-----------------------------8--6--5-----
    --------------------------------------------------------------7--
    -----------------------------------------------------------------
    -----------------------------------------------------------------
    -----------------------------------------------------------------
    
    --------------------------7--5h7h5-0--7--8--7h8h7-0--8--
    --------------------------------------------------------
    --5--4--2--1--4--2--------------------------------------
    --------------------------------------------------------
    --------------------------------------------------------
    --------------------------------------------------------
    
    --10--8h10h8-0--10--12----------8--7h8h7/5-----5-----------
    --------------------------------------------8-----8--6--5--
    -----------------------------------------------------------
    -----------------------------------------------------------
    -----------------------------------------------------------
    -----------------------------------------------------------
    
    ----------------------------7--5h7h5-0--7--8--7h8h7-0--8--
    --6--5h6h5------------------------------------------------
    -----------7--5--4----------------------------------------
    ----------------------------------------------------------
    ----------------------------------------------------------
    ----------------------------------------------------------
    
    --10--8h10h8-0--10--12----------12--13--15--13--12--------------
    ----------------------------------------------------15--13--12--
    ----------------------------------------------------------------
    ----------------------------------------------------------------
    ----------------------------------------------------------------
    ----------------------------------------------------------------
    
    ----------0--------------0----------------0----------------
    ------12-----12------12-----12--------12-----12------------
    --14-------------14---------------14-------------14--------
    -----------------------------------------------------------
    -----------------------------------------------------------
    -----------------------------------------------------------
    
    ---------------------------------------------------------0------------------
    -----------------------0-------1--0--------------0----------3--1--0---------
    --------------------1----------------2--------0------------------------2----
    -----------------2-------------------------0--------------------------------
    --0--3--2--0----------------0-------------------------3-----2--0------------
    --------------4-------------------------3-------------------------3----1----
    
    -------------------------------------------------------------------------
    --------------------------------------------0-------1--0--------------0--
    --2----1----2----------------------------1----------------2--------0-----
    --------------------------------------2-------------------------0--------
    ------------0----------0--3--2--0----------------0-----------------------
    --0--------------------------------4-------------------------3-----------
    
    -----0---------------------------------------
    --------3--1--0------------------------------
    -------------------2------2----1----2--------
    ---------------------------------------------
    --3-----2--0------------------------0--------
    --------------3----1------0------------------
    
    --12--10h12h10h9-----9------------------------------------------
    -----------------12-----10--------------------------------------
    ----------------------------9------9----------------------------
    -------------------------------11-------11------11--------------
    --------------------------------------------12--------12--------
    ----------------------------------------------------------------]…
  • Am   Em         C
    There have been many tales
    G       Am   G       Am
    Tainted by truth twisted by time…
    Am  Em     C
    Some choose to forget
    G
    Yet it still
    C    G         C
    Weaves webs in their minds…
         C…
  • [E-------0---0h7p0-5-3h5p3p0-0h3p0---------------0--------------------
    H-----0---0----------------------0-----------------------------------
    G-----------------------------------4h3h2h4-4-4---4-2-4-2h4p2p0------ } X2
    D---------------------------------2-----------------------------5-4-2
    A---7----------------------------------------------------------------
    E--------------------------------------------------------------------…
  • A       D       A
    I called your name out loud in the courtyard,
       Hm      A       E
    The crystal I held was like an old friend
       A
    The vines crawled the walls
          E
    The wind held its breath
         A     D…
  • Dm          C Am
    Past time with good company
    Dm       C    Am   Dm
    I love, and shall until I die
    Dm       C   Am
    Crutch who lust, but none deny
    Dm      C        Am    Dm
    So god be pleased thus live will I
    Dm C F
    For…
  • F#m   D     Dbm       F#m
    Solitary with a song in her heart...
       D    E       A
    But what a sad song to sing?
    F#m     D       Dbm    F#m
    Turned her back on all that she knew
         D      E    A
    In the hope of a golden…
  • 1.
    Eb|-----------------------------------------------------------------------------|
    B.|-4~--------2-4-5-5/7-5-4~--------4-5-7-7/9-7-5~--------2-4-5-7-5-5~----4~----|
    G.|-----------------------------------------------------------------------------|
    D.|-----------------------------------------------------------------------------|
    A.|-----------------------------------------------------------------------------|
    Eb|-----------------------------------------------------------------------------|
    
    2.
    Eb|--------------------------------------------------------------------------------|
    B.|-0~-----------------------------------------------------------------------------|
    G.|-----------1-3-4-3-1-1h3p1----------------3-4-3-1~----------1-------------------|
    D.|----------------------------4~--------1-4---------------------4-2-1h2p1~--------|
    A.|--------------------------------------------------------------------------------|
    Eb|--------------------------------------------------------------------------------|
    
    3.
    Eb|-------------*12--------|
    B.|-------4~---------------|
    G.|------------------------|
    D.|------------------------|
    A.|------------------------|
    Eb|-0~---------------------|
    
    4.
    Eb|-----------------------------------------------------------------------------|
    B.|-4~--------2-4-5-5/7-5-4~--------4-5-7-7/9-7-5~--------2-4-5-7-5-5~----4~----|
    G.|-----------------------------------------------------------------------------|
    D.|-----------------------------------------------------------------------------|
    A.|-----------------------------------------------------------------------------|
    Eb|-----------------------------------------------------------------------------|
    
    5.
    Eb|-8~--------5-7-8-8/10-8-7h8p7~--------3-5-7-8-7h8p7-5~--------5-3-1-0h1p0~----|
    B.|------------------------------------------------------------------------------|
    G.|------------------------------------------------------------------------------|
    D.|------------------------------------------------------------------------------|
    A.|------------------------------------------------------------------------------|
    Eb|------------------------------------------------------------------------------|
    
    6.
    Eb|-0~----0-3h5/7~--------|
    B.|-----------------------|
    G.|-----------------------|
    D.|-----------------------|
    A.|-----------------------|
    Eb|-----------------------|
    
    7.
    Eb|-----------------------------------------------------------------------------------|
    B.|-4~--------4-5-7-5-4-2h4p2~--------2-4-5-4-2-0h2p0~--------------------------------|
    G.|-----------------------------------------------------------1-3-4-3h4p3-1-3~--------|
    D.|-----------------------------------------------------------------------------------|
    A.|-----------------------------------------------------------------------------------|
    Eb|-----------------------------------------------------------------------------------|
    
    8.
    Eb|-------------------------------------------------------------------------------|
    B.|-4~--------4-5-7-5-4-2h4p2~--------2-4-5-4-2-2/5~--------5-7-7/9-7-5-4~--------|
    G.|-------------------------------------------------------------------------------|
    D.|-------------------------------------------------------------------------------|
    A.|-------------------------------------------------------------------------------|
    Eb|-------------------------------------------------------------------------------|
    
    9.
    Eb|-----------------------------------------------------------------------------|
    B.|-4~--------2-4-5-5/7-5-4~--------4-5-7-7/9-7-5~--------2-4-5-7-5-5~----4~----|
    G.|-----------------------------------------------------------------------------|
    D.|-----------------------------------------------------------------------------|
    A.|-----------------------------------------------------------------------------|
    Eb|-----------------------------------------------------------------------------|
    
    10.
    Eb|-8~--------5-7-8-8/10-8-7h8p7~--------3-5-7-5-3-5~--------5-3-1-0-1-0-----------------------------------------|
    B.|----------------------------------------------------------------------2-4-2-----------------------------2-4~--|
    G.|----------------------------------------------------------------------------3-4-3-1-3-1-0-1-3-0---1-3-4-------|
    D.|------------------------------------------------------------------------------------------------1-------------|
    A.|--------------------------------------------------------------------------------------------------------------|
    Eb|--------------------------------------------------------------------------------------------------------------|
    
    11.
    Eb|-----------------------------------------------------------------------------------|
    B.|-4~--------4-5-7-5-4-2h4p2~--------2-4-5-4-2-0h2p0~--------------------------------|
    G.|-----------------------------------------------------------1-3-4-3h4p3-1-3~--------|
    D.|-----------------------------------------------------------------------------------|
    A.|-----------------------------------------------------------------------------------|
    Eb|-----------------------------------------------------------------------------------|
    
    12.
    Eb|-----------------------------------------------------------------------------------|
    B.|-4~--------4-5-7-5-4-2h4p2~--------2-4-5-4-2-2/5~--------5-7-7/9-7-5-4h5p4~--------|
    G.|-----------------------------------------------------------------------------------|
    D.|-----------------------------------------------------------------------------------|
    A.|-----------------------------------------------------------------------------------|
    Eb|-----------------------------------------------------------------------------------|
    
    13.
    Eb|-7-5h7p5-3-0~--------------|
    B.|---------------------------|
    G.|---------------------------|
    D.|---------------------------|
    A.|---------------------------|
    Eb|-----------------0~--------|
    
    14.
    Eb|-----------------------------------------------------------------------------|
    B.|-4~--------2-4-5-5/7-5-4~--------4-5-7-7/9-7-5~--------2-4-5-7-5-5~----4~----|
    G.|-----------------------------------------------------------------------------|
    D.|-----------------------------------------------------------------------------|
    A.|-----------------------------------------------------------------------------|
    Eb|-----------------------------------------------------------------------------|
    
    15.
    Eb|------------------------------------------------------------------------------|
    B.|-0~---------------------------------------------------------------------------|
    G.|-----------1-3-3/4-3h4p3-1-1h3p1----------------3-4-6-4h6p4-1~----------------|
    D.|----------------------------------4~--------1-4-------------------------------|
    A.|------------------------------------------------------------------------------|
    Eb|------------------------------------------------------------------------------|
    
    16.
    Eb|-----------------------------------------------|
    B.|-----------------------------------------------|
    G.|-4h6p4-3h4p3-1h3p1-0h1p0-----------------------|
    D.|-------------------------1h2p1h2p1h2p1h2p1~----|
    A.|-----------------------------------------------|
    Eb|-----------------------------------------------|
    
    17.
    Eb|-------------------------------------------------0~---------------------|
    B.|---------------------------2-4-5-4-7-4-4h5p4-2-4----4-2-0---0-----------|
    G.|---------------------1-3-4--------------------------------3---3~--------|
    D.|---------------1-3-4----------------------------------------------------|
    A.|---------1-2-4----------------------------------------------------------|
    Eb|-0-2-3-5----------------------------------------------------------------|
    
    18.
    Eb|-5~------------------------|
    B.|-x-------------------------|
    G.|-x-------------------------|
    D.|-6~------------------------|
    A.|-6~------------------------|
    Eb|-5~------------------------|
    
    Key:
    |…
  • Dbm     B         Dbm
    I thought of you the other day
       A     B         Dbm
    How worlds of change led us astray
    Dbm   B         Dbm
    Colors seem to fade to gray
    A    B        Dbm
    In the wake of yesterday…
    Dbm B…
  • F#
    Is this happening?
    Ebm           B  Db
    Is this fantasy?
    F#  B   F#
    Never did I believe
    B       F#   Db
    There could be such happiness
    F#     B       F#
    Feels like nothing on earth
    B         F#     Db
    Starting…
  • D         G
     Maire, let campagno gansaion
     A       D
     A questo nue, balin-balan,
     D         G
     Leis ave, lei fedo sounaion.
     A       D
     D`ounte ven ageu sagan?
     D
     Lou gat sauto dins la paniero,
     G      A
     Medor…
  • F#m         Db
    Tried to take it all away,
    F#m      Db
    Learn her freedom... just inside a day,
    F#m       Db           F#m         Db
    And find her soul to find there fears are laid...
    F#m          Db
    Tried to make her…
  • F#      Ebm
    Now you're gone
         B        Db
    We're left to carry on
    F#      Ebm     Abm    Db
    Though the night seems twice as long
    B      Ebm
    And here within my heart
     Bbm         Ebm
    I don't feel very strong…
  • Em	          D		Em
    Over on the hill, there grows a flower
    Em		D		           Em
    Growing quicker still, more perfect by the hour
    Em	         G	      D    Em
    Deep within that flower, is a tiny chair 
    C	      Am   D…
Наверх