Аккорды «Blind Guardian»

Blind Guardian
Blind Guardian (англ. Слепой страж или Слепой поводырь) -- немецкая метал-группа, образованная в 1984 году в городе Крефельд. Тексты группы, написанные вокалистом Ханси Кюршем, основаны на сюжетах из фантастических произведений: книг Джона Толкина, Майкла Муркока, Стивена Кинга, а также легендах и мифах разных народов. Альбом 1998 года «Nightfall in Middle-Earth» целиком основан на «Сильмариллионе» Толкина. Blind Guardian относительно уникальны в том смысле, что в период с 1987 по 2005 годы состав… Читать полностью... Blind Guardian (англ. Слепой страж или Слепой поводырь) -- немецкая метал-группа, образованная в 1984 году в городе Крефельд. Тексты группы, написанные вокалистом Ханси Кюршем, основаны на сюжетах из фантастических произведений: книг Джона Толкина, Майкла Муркока, Стивена Кинга, а также легендах и мифах разных народов. Альбом 1998 года «Nightfall in Middle-Earth» целиком основан на «Сильмариллионе» Толкина. Blind Guardian относительно уникальны в том смысле, что в период с 1987 по 2005 годы состав группы не менялся: в него входили Ханси Кюрш (вокалист и, до 1998 г., бас-гитарист), гитаристы Андре Ольбрих и Маркус Зипен и барабанщик Томен Штаух. В 2005 году Штаух покинул группу; его заменил Фредерик Эмке. 1980-е Группа, изначально называвшаяся Lucifer’s Heritage (что переводится как «Наследие Люцифера»), была образована в 1984 году гитаристом Андре Ольбрихом и бас-гитаристом Ханси Кюршем. Первое время состав группы несколько раз менялся: Маркус Дорк (гитара) и Томен Штаух (ударные) уступили места, соответственно, Кристофу Тийсену и Хансу-Петеру Фраю, но оба эти музыканта покинули группу в течение года. Состав устоялся лишь в 1987 году, когда в Lucifer’s Heritage влились остатки группы Reedemer — Маркус Зипен и снова Томен Штаух. После нескольких попыток найти вокалиста (один концерт группа отыграла с неким Томасом Келльнерсом, и осталась недовольна), эта обязанность закрепилась за поющим басистом Ханси. На деньги бабушки Андре группа записала две демозаписи — «Symphonies of Doom» и «Battalions of Fear» — благодаря которым (особенно последней) им удалось заключить контракт с лейблом No Remorse Records. Продюсером и звукорежиссёром группы стал Калле Трапп. Чтобы избежать ассоциаций с сатанизмом, музыканты решили изменить название группы. «В течение нескольких дней мы назывались „Battery“ — по одной из песен Metallica, но наши друзья убедили нас, что это не самая лучшая идея. Другим вариантом было название Raging Waters, в честь известной песни "Testament" — вспоминает Ханси. В итоге было принято предложение Кюрша назваться Blind Guardian по собственной песне «Guardian of the Blind», под которым она известна и сейчас. Буквальный перевод названия — оксюморон «Слепой страж», но по словам музыкантов, они трактуют название скорее как «Слепой поводырь». «В моём воображении „слепой поводырь“ — это человек, на котором лежит ответственность за других людей, ведущий за собой. Который превосходит других, несмотря на своё физическое увечье», — говорит Ханси. Первый альбом группы — «Battalions of Fear» (1988) состоял наполовину из песен с одноимённого демо и продемонстрировал ощутимое влияние ранних работ Helloween в стиле спид-метал. Туда также вошли гитарные вариации Андре на классические симфонии Антонина Дворжака. Годом позже был выпущен «Follow the Blind» (1989), более тяжёлый и, по словам музыкантов, с уклоном в трэш-метал. В записи альбома принял участие лидер Helloween Кай Хансен в качестве третьего гитариста и бэк-вокалиста. Blind Guardian начали набирать популярность в Германии. 1990-е Широкую известность Blind Guardian принёс их третий альбом «Tales from the Twilight World» (1990), ознаменовавший смещение в сторону пауэр-метала и начало выработки собственного звучания Blind Guardian, для которого характерно использование хоровых партий и общее достаточно «эпическое» настроение. На этом альбоме также участвовал Кай Хансен, уже ушедший из Helloween в собственный проект Gamma Ray. Вскоре после выхода «Tales…» группа подписала контракт с крупным лейблом Virgin Records, на котором в 1992 году вышел четвёртый альбом «Somewhere Far Beyond» тиражом 130 тысяч экземпляров. Благодаря «Tales…» и «Somewhere…» Blind Guardian стали весьма популярны в Японии, где был записан их первый концертный альбом «Tokyo Tales» (1993). Новым продюсером Blind Guardian стал Флемминг Расмуссен, ранее работавший с Metallica на альбомах Master of Puppets и And Justice for All. В сотрудничестве с ним в 1995 году группа выпустила свой пятый студийный альбом, озаглавленный «Imaginations from the Other Side». Выпущенный в 1996 году сборник «The Forgotten Tales» содержал акустические и оркестровые версии нескольких композиций Blind Guardian, а также каверы некоторых песен других исполнителей. Продюсерам Virgin так понравилась кавер-версия песни «Mr. Sandman», что они настояли на выпуске её отдельным синглом. На эту песню был снят шуточный клип, первое постановочное видео в истории группы. Музыканты предстают в облике злых клоунов, пугающих мальчика, который не хочет ложиться спать. Ещё два клипа были сняты на песни с «Imaginations…» — «Bright Eyes» и «Born in a Mourning Hall» (концертный). Ещё одно видео, снятое группой в этот период — короткометражная комедия «Drei Schüsse im Leberknödel», пародия на фэнтези, где участники группы преодолевают испытания в заколдованном замке. В 1998 году вышел концептуальный альбом «Nightfall in Middle-Earth», основанный на книге Джона Толкиена «Сильмариллион». На этом альбоме Blind Guardian использовали «хоровой» бэк-вокал в духе Queen, ряд элементов фолк-рока. Альбом считается одним из самых успешных за всю историю группы, и первым, изданным в США. Песня «Mirror Mirror» была выпущена отдельным синглом. При записи этого альбома Ханси Кюрш сложил с себя обязанности бас-гитариста и полностью сосредоточился на пении. Партии бас-гитары на этом и последующих альбомах Blind Guardian исполнял Оливер Хольцварт (брат ударника Rhapsody of Fire Алекса), который также исполняет песни с группой вживую с 1998 года. Однако он не числится в «официальном» составе группы на её сайте. Причиной тому, по словам музыкантов, было желание сохранить возможность для Ханси вернуться к игре на бас-гитаре. В этот период Кюрш перенёс тяжёлую болезнь, которая едва не стоила ему слуха, и всерьёз рассматривался вариант, что он вынужден будет бросить пение и остаться только бас-гитаристом. По словам Маркуса, «пятый гвардеец» Оливер вполне удовлетворён своим полуофициальным статусом. 2000-е К началу XXI века Blind Guardian постепенно поменяли и звучание, и менеджмент. Расставшись с Расмуссеном, музыканты прибегли к услугам Чарли Бауэрфильда. Седьмой альбом группы вышел в 2002 году и был назван «A Night at the Opera», в честь одноимённого альбома Queen. По словам Маркуса, «Queen больше всех повлияли на нас, так что это своего рода дань уважения». На новом альбоме Blind Guardian полностью отошли от своих спид-метал-корней в пользу пауэр-метала с элементами прогрессив-метал. Альбом не был концептуальным, но на нём прослеживалась общая тематика многих песен: взаимоотношения человека с высшими силами. За выходом альбома последовало мировое турне Blind Guardian, увенчавшееся аншлаговым финальным концертом в Дюссельдорфе, на который пришло порядка шести тысяч зрителей — рекорд для группы на тот момент. В ходе этого тура был записан второй концертный альбом группы — «Live» (2003), а также сингл с концертными версиями хита группы «The Bard's Song» в исполнении публики разных городов и стран. В том же году в Кобурге Blind Guardian провели двухдневный фестиваль имени себя, на котором был записан концертный DVD «Imaginations Through the Looking Glass», выпущенный годом позже. Уйдя с Virgin в 2004году, Blind Guardian заключили контракт с Nuclear Blast Records, который начал активно продвигать группу. С этого времени музыканты перестали сотрудничать с постоянным художником Андреасом Маршалом, и начали приглашать художников на один альбом. Среди работавших над обложками был российский художник Лео Хао, известный по обложкам группы Ария. В апреле 2005 года из-за музыкальных разногласий группу покинул Томен Штаух, который почти 20 лет был барабанщиком Blind Guardian. Томену не нравился материал двух последних альбомов, не нравилась техника перепродюсирования, он предпочитал традиционный спид-метал, который начал продвигать в своём новом проекте Savage Circus. На его место рассматривались кандидатуры Алекса Хольцварта (Rhapsody) и Ули Куша (Helloween), но в итоге место за ударной установкой Blind Guardian занял молодой Фредерик Эмке. С его участием группа выпустила свой восьмой альбом «A Twist in the Myth», чей международный релиз состоялся 1 сентября 2006 года. Тур в поддержку альбома завершился в Крефельде в ноябре 2007 г. совместным выступлением с Leaves' Eyes. Две песни с альбома были выпущены синглами: «Fly» и «Another Stranger Me». На последнюю режиссёром Иваном Количем был снят видеоклип, стилизованный под нуар, в нём детектив охотится за маньяком-убийцей, который оказывается его «вторым я». С 2000 года Ханси Кюрш участвует в проекте Demons & Wizards, совместно с гитаристом группы Iced Earth Джоном Шаффером. Совместно Ханси и Джон выпустили альбомы Demons & Wizards (2000) и Touched by the Crimson King (2005) в жанре пауэр-метал. Blind Guardian вели переговоры с Питером Джексоном о возможности участия в саундтреке к кинотрилогии «Властелин Колец», однако не достигли соглашения. По словам Ханси, вся музыка, написанная им к «Властелину Колец» (в стиле симфонической и фолк-музыки) будет впоследствии выпущена отдельным альбомом. Виктор Смольский и белорусский симфонический оркестр примут участие в этом проекте. В 2008 году группа записала главную тему к компьютерной ролевой игре Sacred 2: Fallen Angel (2008). В Sacred 2 был встроен секретный видеоклип с участием компьютерных моделей группы в фэнтези-антураже. Существует две версии этого видео: полная доступна только в игре, сокращённая (без второго куплета и с врезками из других мест игры) свободно распространялась по Интернету в качестве рекламы. Также песни Blind Guardian использовались в фильме In the Name of the King: a Dungeon Siege Tale. Осенью 2009 года группа начала запись нового альбома At the Edge of Time, который вышел летом 2010 года. На нём группа вернулась к фантастике. Выход альбома предварял сингл A Voice in the Dark, на эту песню был также снят видеоклип. Скрыть...
Популярные аккорды Blind Guardian:
алфавиту | просмотрам | случайно
  • G#m           F# 
    Now you all know                     
         D#m              G#m 
    The bards and their songs             
    When hours have gone by            
    I'll close my eyes                   
           H          F#
    In…
  • Rhy. Fig 1
                                           First time        Second time
    E--0----------------------------------|-----------------|----------------|
    B-----3--1--0--0--1--0-----0----------|-1--3--1--0--1---|----------------|
    G-----------------------0-----2--0----|-----------------|--2-------------|
    D-------------------------------------|-----------------|----------------|
    A--0----------------------------------|-0---------------|--0-------------|
    E--------------3-----------0----------|-----------------|----------------|
    
    W/…
  • e|---0-----------------------|------------------|--0-------------------------
    B|------0-----------------0--|-----------0------|-----0----------------------
    G|---------0-----------0-----|--------0-------3-|--------0--------------0----
    D|------------0-----0--------|-----3------------|-----------0--------0-------
    A|---------------------------|--1---------------|-----------------0----------
    E|-0-------------3-----------|------------------|--0-----------3-------------
    
    e|-------------------------|--0-----------------------|----------------------
    B|-------------------------|-----0-----------------0--|----------0-----------
    G|----------0--------------|--------0-----------0-----|-------0-------3------
    D|-------0-----2-----2h-4p-|-----------0-----0--------|----3-----------------
    A|----4-----------4--------|--------------------------|-1--------------------
    E|-2-----------------------|--0-----------3-----------|----------------------
    
    e|----------0---__-___-----|------------0------------|-----------------------
    B|-------------3—-1---0----|---------------1--0-_drag|__---------------------
    G|-------0---------------0-|-------2-----------------|-----------------------
    D|----2--------------------|----2--------------------|-----------------------
    A|-3-----------------------|-0-----------------------|----------------3h—2p--
    E|-------------------------|-------------------------|-----------------------
    
    e|-------------0-----------|----------3------------|----------0---__-__------
    B|----------1-----1--------|--------------3--------|-------------3--1--0-----
    G|-------2-----------2-----|-------0---------0-----|-------0-----------------
    D|----2-----------------2--|----0---------------0--|----2--------------------
    A|-0-----------------------|-----------------------|-3-----------------------
    E|-------------------------|-3---------------------|-------------------------
    
    e|-----------------_-_-----|--------------0-----------|-----------0----------
    B|----------0--1--0-1-0----|-----------1-----1--------|---------------1------
    G|----------------------0--|--------2-----------2-----|--------0---------0---
    D|-------2-----------------|-----2-----------------2--|-----2---------------2
    A|----2--------------------|--0-----------------------|--3-------------------
    E|-0-----------------------|--------------------------|----------------------
    
    e|-----------3-------------|------------------_-_-----|--------------0----------
    B|--------------0----------|-----------0--1--0-1-0----|-----------1-----1-------
    G|-----------------0-------|-----------------------0--|--------2-----------2----
    D|--------0-----------0----|--------2-----------------|-----2-----------------2-
    A|-----2-----------------2-|-----2--------------------|--0----------------------
    E|--3----------------------|--0-----------------------|-------------------------
    
    e|-----------0----------|-----------3--------------|---------------------------
    B|--------------1-------|--------------0-----------|-----------1----0---_-_-_--
    G|--------0--------0----|-----------------0--------|-------------------2-4-2-0-
    D|-----2--------------2-|--------0-----------0-----|--------3------------------
    A|--3-------------------|-----2-----------------2--|-----3---------------------
    E|----------------------|--3-----------------------|--1------------------------
    
    e|-------------------------|--0----|--------------------3----|-----------------_-_----
    B|-----------1--------1----|-------|--1-----------1--------1-|-0--------0--1--0-1-0---
    G|--------2-----2--------2-|-------|-----2-----------2-------|-------0--------------0-
    D|-----2-----------2-------|-------|--------2-----2----------|----2-------------------
    A|--0----------------------|-------|--0--------0-------------|------------------------
    E|-------------------------|-------|-------------------------|-0----------------------
    
    e|------------3---__--------|----------------------|----------0---__-__------
    B|---------------3--0-------|----------4--------4--|-------------3--1--0-----
    G|--------0------------0----|-------4-----4--------|-------0--------------0--
    D|-----0------------------0-|----4-----------4-----|----2--------------------
    A|--------------------------|-2--------------------|-3-----------------------
    E|--3-----------------------|----------------------|-------------------------
    
    e|-------------------------|-------------------------|-0---|-0-----------2-----------
    B|----------1--0---_-_-_---|----------1--------1-----|-----|----0-----------3--------
    G|----------------2-4-2-0--|-------2-----2--------2--|-----|-------0-----------2-----
    D|-------3-----------------|----2-----------2--------|-----|----------2--0--------0--
    A|----3--------------------|-0-----------------------|-----|-------------------------
    E|-1-----------------------|-------------------------|-----|-0-----------------------
    
    e|--2-----------0-----------|-0-----------2-----------|-2-----------0-----------
    B|-----3-----------1--------|----0-----------3--------|----3-----------1--------
    G|--------4-----------0-----|-------0-----------2-----|-------4-----------0-----
    D|-----------4-----------2--|----------2--0--------0--|----------4-----------2--
    A|--2-----------3-----------|-------------------------|-2-----------3-----------
    E|--------------------------|-0-----------------------|-------------------------
    
    e|-0-----------2----------|-2-----------0----------|-0-----------2-----------
    B|----0-----------3-------|----3-----------1-------|----0-----------3--------
    G|-------0-----------2----|-------4-----------0----|-------0-----------2-----
    D|----------2--0--------0-|----------4-----------2-|----------2--0--------0--
    A|------------------------|-2-----------3----------|-------------------------
    E|-0----------------------|------------------------|-0-----------------------
    
    e|-2-----------0----------|-0-----------2----------|-2-----------0-----------
    B|----3-----------1-------|----0-----------3-------|----3-----------1--------
    G|-------4-----------0----|-------0-----------2----|-------4-----------0-----
    D|----------4-----------2-|----------2--0--------0-|----------4-----------2--
    A|-2-----------3----------|------------------------|-2-----------3-----------
    E|------------------------|-0----------------------|-------------------------
    
    e|-0-----------2----------|--2-----------0----------|-0-----------2----------
    B|----0-----------3-------|-----3-----------1-------|----0-----------3-------
    G|-------0-----------2----|--------4-----------0----|-------0-----------2----
    D|----------2--0--------0-|-----------4-----------2-|----------2--0--------0-
    A|------------------------|--2-----------3----------|------------------------
    E|-0----------------------|-------------------------|-0----------------------
    
    e|-2-----------0----------|--0-----------2-----------|--2-------------0----------
    B|----3-----------1-------|-----0-----------3--------|-----3-------------1-------
    G|-------4-----------0----|--------0-----------2-----|--------4-------------0----
    D|----------4-----------2-|-----------2--0--------0--|-----------4-------------2-
    A|-2-----------3----------|--------------------------|--2-----------3------------
    E|------------------------|--0-----------------------|---------------------------
    
    e|--2-----------------5__3-|------------------------|--5-—3_5_3_1------5______
    B|-----3-----------3-------|----1-------1-----------|---------------4---------
    G|--0-----2-----2----------|-------2-------2--------|-------------------------
    D|-----------0-------------|----------2-------2-----|-------------------------
    A|-------------------------|-0-------------------0--|-------------------------
    E|-------------------------|------------------------|-------------------------
    
    There…
  • Intro
                                                                   
    E||---------------------------------|-------------------------|
    B||---------------------------------|-------------------------|
    G||---------------------------------|----------2--------------|
    D||---------------------------------|--4---6---0---6---4------|
    A||--6------------------------------|--2---4-------4---2------|
    E||--4--4-4-4-4-4-4-4-4-4-4-4-4-4-4-|-------------------------|…
  • Tune half step lower (E=Eb, A=Ab etc)
    
               Intro (4 times)
         Asus2  F(b5)  C
    ||---------------------------------||
    ||-----0-----0-----1---------------||
    ||*----2-----2-----0--------------*||
    ||*----2-----3-----2--------------*||
    ||--0-----0-----0--3--2--3--2--1---||
    ||---------------------------------||…
  • A#        A
    Mister Sandman, bring me a dream
    D                       G 
    Make it the cutest that I've ever seen
    C                       F 
    Give her two lips like roses in clover
    A#                             F#
    Then tell…
  • Tuning: Standart (E A D G)
    
    h - hammer on
    p - pull off
    / - slide up
    
    
    Intro
    
    G|--------|
    D|--REST--|
    A|--------|
    E|--------|
    
    
    Verse 1 (0:20)
    
    G|----------|---4/6-4-----|----------|----------|---4/6-4-----|----------|
    D|----------|---------7-6-|4--2------|4---------|---------7-6-|4--2------|
    A|----------|-------------|----------|----------|-------------|----------|
    E|2-------0-|2------------|----------|--------0-|2------------|----------|
    
    
    Chorus…
  • Fig.1                                                              End Fig.1
       1  2  3  4     1  2  3  4     1     2     3     4       1   2   3   4
      Pm---          Pm---           Pm-----------------------------  Repeat…
  • Legend
    fb   - full bend
    fbr  - full bend then release
    hb   - half bend
    ~    - vibrato
    Tr   - trill
    A.H  - artificial harmonic
    /   - slide up/down
    
    4/4 Time
    Fast Tempo
    
    Intro A
    
                     x8
    
    |------------------|
    |------------------|
    |*----------------*|
    |*---11--6-7-9----*|
    |--9-----4-5-7--9--|
    |------------------|…
  • (Intro:)
            Bm                     A               F#m          A Bm
     |------------7-5-|-----------------|-----------7-9-|--------------|
     |--------5-7-----|-------5-7-------|-------3-5-----|-------5------|
     |--4h6-7---------|-4h6-7-----6h7-6-|-2h4-5---------|-4h6-7---6-4--|…
  • INTRO
    
                sl.                     sl.
    E||--------------------------------------------------------|
    B||-------------------5------------------------------------|
    G||--6-----4--6-----6---6---------------------6----6-------|
    D||--6-----4--6----6------6--7-----6--7----7----7-7-6------|
    A||--4-----2--4---4----------7-----6--7---7-7--------------|
    E||--------------------------5-----4--5--5-----------------|
    
    
    Intro:…
  • Intro Riff
                                         Part 1 3x          Part 2 (end)
    E|----------------------------------|-------------------|--------------|
    B|----------------------------------|----------13-11-13-|--------------|
    G|----------------------------------|-12-11-12----------|-12-/-10--10~-|
    D|-5-5-5-5-5-3-5-------12--13-15-13-|-------------------|--------------|
    A|-3-3-3-3-3-1-3--15----------------|-------------------|--------------|
    e|----------------------------------|-------------------|--------------|…
  • Intro: played twice
    |--------|------------|--------|------------|
    |--------|------------|--------|------------|
    |--------|------------|--------|------------|
    |--------|------------|--------|------------|
    |-3--5-7-|-5--------5-|-5--7-9-|-7--------7-|
    |-1--3-5-|-3--3-3-3-3-|-3--5-7-|-5--5-5-5-5-|…
  • A#                 D#
    If everybody had a ocean across the USA
                         A#                   D#
    And everybody 'd be surfin' like California
                            G#                       D#
    See them wearing…
  • Tune half step lower (E=Eb, A=Ab etc)
    
    
    Em       C            D
    I am lost in the Black Chamber
                Em     C    D
    There's no way to turn back
     Em       C          D
    There  (There) still I'm 
          Em   C    D
    In a…
  • Powerchords used in this tab:
    
       C5    A2    G5    F3    E9    D7   F10    B4    E2
    D|-5--||-2--||----||----||-9--||-7--||-10-||-4--||----|
    A|-3--||-0--||-5--||-3--||-7--||-5--||-8--||-2--||-2--|
    e|----||----||-3--||-1--||----||----||----||----||-0--|
    
    
    Intro
    
    Guitar…
  • Intro (Clean Tone. Let ring)
    
    |0-----------------------------------------------------------|
    |----0---------------------------------------0---------------|
    |--------0-------------------0-----------0------------3------|
    |------------0-----------0-----------4-----------------------|
    |--------------------2-----------1---------------------------|
    |----------------3-------------------------------------------|
    
    
    |0---------------------------------------------------------------|
    |----0---------------------------------------0---------------0---|
    |--------0-------------------0-----------0-------2-------2-------|
    |------------0-----------0-----------4---------------4-----------|
    |--------------------2-----------2-------------------------------|
    |----------------3-----------------------------------------------|
    
    
    |0-----------------------------------------------------------|
    |----0---------------------------------------0---------------|
    |--------0-------------------0-----------0------------3------|
    |------------0-----------0-----------4-----------------------|
    |--------------------2-----------1---------------------------|
    |----------------3-------------------------------------------|
    
    
    |------------0-------------------------------0-----------------|
    |----------------3-----------------------1-------1---0---------|
    |--------5-----------5---4---0---------------------------------|
    |----5-------------------------------2-------------------------|
    |3-------------------------------0-----------------------------|
    |--------------------------------------------------------------|
    
    >Text:…
  • Em Am
    Em Am
    C Am Em
    
    Bm
    The faithful crowd
    Em
    Is gathered here
    D            Am
    Soon they’ll appear
    Bm                      Em
    The high and the mighty show up
    D        Am    C 
    The king is in doubts
    Bm…
  • tune down
    
    F#||----------------------------|----------------------------|
    C#||----------------------------|----------------------------|
    G#||----------------------------|----------------------------|
    D#||--2--2--2--2----------------|--2--2--2--2----------------|…
  • 4/4 Time Signature
    
    Fast Tempo
    
    
    Intro
    Normal Tempo
      A5 A5 A5
    |-------------------------|-----------------------|
    |-10-10-10-13-13-13-13-12-|-12-12-12-15-15-15-15-~|
    |-------------------------|-----------------------|
    |--7--7--7-10-10-10-10--9-|--9--9--9-12-12-12-12~-|
    |-------------------------|-----------------------|
    |-------------------------|-----------------------|…
  • Tune Down
    
    F#||-------------------------------|-------------------------------|
    C#||-------------------------------|-------------------------------|
    G#||-------------------------------|-------------------------------|
    D#||--0----0--0--0----0------------|--0----0--0--0----0------------|…
  • Legend
    {{      - tremolo picking
    hb      - half bend (1 fret)
    fb      - full bend (2 frets)
    hbr     - half bend then release
    fbr     - full bend then release
    A.H     - artificial harmonic
    /        - slide up/down
    
    Intro…
  • all guitars are 1/2 steps  downed
    
    Intro (2x)
    Eb--------------------------------------------------
    Bb--------------------------------------------------
    Gb--------------------------------------------------
    Db--3-4-6----9---3-4-6----9---------9---------------
    Ab--3-4-6----9---3-4-6----9---------9---------------
    Eb--1-2-4----7---1-2-4----7~9-9-9-5-7~9-9-9---------
    
    gtr1
    Eb-----------------------------------------------
    Bb-----------------------------------------------
    Gb-----------------------------------------------
    Db--3----3-3-3----3-----3-3-3--------------------
    Ab--3----3-3-3----3-----3-3-3--------------------
    Eb--1----1-1-1----1-----1-1-1--------------------
    
    gtr1…
  • Intro
    E|----------------------------------------------------------------|
    B|----------------------------------------------------------------|
    G|----------------------------------------------------------------|
    D|------------------------------------------------------------4-5-|
    A|-2-2-2-2-2-2-2-2-ETCETRA-5--7-9-7-5-2-2-2-2-2-2-2-2-ETCETRA-2-3-|
    e|-------------------------3--5-7-5-3-----------------------------|
    P.M[_____________________]…
  • INTRO:
    ****************************************
    |------------------------0------------------|
    |-------------4------------0----------------|
    |-----------------4-----------0---4---3h4p3-|
    |---------6----------6----------------------|
    |-------6-----------------------------------|
    |4------------------------------------------|
    
    |--------------------------------------------|
    |------------4-------------------------------|
    |----------------4-----6---3-----------------|
    |--------6-----------6---------5-------------|
    |------6-------------------------------------|
    |4-------------------------------------------|
    
    |--------------------------|-----------------|
    |4/5---4-------------------|-7/9---7-5-5/7-4-|
    |----------6-----4---6/8---|-----------------|
    |--------------------------|-----------------|
    |--------------------------|-----------------|
    |--------------------------|-----------------|
    ****************************************…
  • B         Bsus4 B   Bsus2 B     A  E    B   
    He was the wi- zard of    a   thousand Kings
                     Bsus4  B  Bsus2  B      A  E B   
    And I chanced to see   him  one  day    wandering
    A           E          A…
  • Rhy. Fig 1
                                           First time        Second time
    E--0----------------------------------|-----------------|----------------
    B-----3--1--0--0--1--0-----0----------|-1--3--1--0--1---|----------------
    G-----------------------0-----2--0----|-----------------|--2-------------
    D-------------------------------------|-----------------|----------------
    A--0----------------------------------|-0---------------|--0-------------
    E--------------3-----------0----------|-----------------|----------------
    
    W/…
  • Legend:
    
    ~ - vibrato
    h - hammer
    sl. - slide
    
    
      Intro (playing 2 times)
     Acoustic
    E-------------------!--------------!------------!----------------------]
    B-------------------!--------------!------------!----------------------]
    G*-10---8-----------!-----------10-!-8----------!-----------10~--------]
    D*--------11-10-8~--!---8-10-11----!---11-10-8~-!---8-10-11------------]
    A-------------------!--------------!------------!----------------------]
    E-------------------!--------------!------------!----------------------]
    
    Rhytm
    E---6---------------!---(6)--------!--(6)-------!------------6---------]
    B---6---------------!---(6)--------!--(6)-------!------------6---------]
    G*--6---------------!---(6)--------!--(6)-------!------------6---------]
    D*--8---------------!---(8)--------!--(8)-------!------------8---------]
    A---8---------------!---(8)--------!--(8)-------!------------8---------]
    E---6---------------!---(6)--------!--(6)-------!------------6---------]
    
    Acoustic…
  • Em Hm Em
    
    Em      Hm
    She is gone
    Em        
    Leaves are falling down
    Em              Hm        Em
    The tear maiden will not return
    Em          Hm            Em
    The seal of oblivion is broken
    Em                      Hm…
  • Tune to Eb (one Half step down)
    
    Intro                                   Ending 1
    
     C#5
    |--------------------------------------|------------------|
    |--------------------------------------|--10----10-9------|
    |------7-----5--------8p7-7-7p5--------|----7--------7--5-|
    |------------------------------6h7-----|------------------|
    |-5-5----5-5---5-5---------------------|------------------|
    |--------------------------------------|------------------|
    P.M[_]…
  • Legend
    fb  - full bend
    fbr - full bend then release
    hb  - half bend
    ~   - vibrato
    }}  - tremolo picking
    A.H - artificial harmonic
    
    4/4 Time
    
    
    Intro
    Normal Tempo
     E5          G5     C5                  B5
    |----------|------|-------------------|---------------------|
    |----------|------|-------------------|---------------------|
    |----------|-4-4~-|-------------------|---------------------|
    |-5~-5-4-5-|-5-5~-|-----------------5-|-----------------4---|
    |-7~-7-5-7-|------|-3-3-3-3-3-3-3-3-3-|-2-2-2-2-2-2-2-2-2---|
    |----------|------|-------------------|-------------------3-|…
  • INTRO
    
    gtr.1
         Am               Em              Am
    E||-----0---------------0---------------0-----------0-----0------|
    B||----1--1------------0--0------------1------1--3-----3---------|
    G||---2-----2---------0-----0---------2-----2--------------------|
    D||--2---------------2--------2------2---------------------------|
    A||-0---------------2---------------0----------------------------|
    E||----------------0---------------------------------------------|
    
    gtr.2
    E||-----------3-5---------------------------5-8-10--12-10-12-----|
    B||------------------------------5p3---5-------------------------|
    G||--------------------------------------------------------------|
    D||--------------------------------------------------------------|
    A||--------------------------------------------------------------|
    E||--------------------------------------------------------------|
    
    gtr.1…
  • C                          D
    |--------------------------|-----------------10-----------|
    |-------5-----------5------|-------7-------------7--------|
    |----5-----5-----5-----5---|----7-----7-------------7-----|
    |-------------5------------|-------------0----------------|
    |-3------------------------|-5----------------------------|
    |--------------------------|------------------------------|…
  • Riff 1 2x
    
    E|-9------9---11-12------9------9---11-12------------------14-16----
    B|---9-12-----------12-----9-12-----------12------14-16-17-------17-
    G|---------------------------------------------14-------------------
    D|------------------------------------------------------------------
    A|------------------------------------------------------------------
    e|------------------------------------------------------------------
    
    E…
  • ||-----------------|-----------------|-----------------|-----------------||
    ||-----------------|-----------------|-----------------|-----------------||
    ||*----0-----------|-----------------|-------0-3-------|-2-----0--------*||
    ||*--0---0-4-------|-----------------|-----0-------0---|---0------------*||
    ||-2---------------|-----------------|---1-----------1-|-----1-----------||
    ||-----------------|-----------------|-3---------------|-----------------||
    
    |-----------------|-----------------|-----------------|-----------------|
    |-----------------|-----------------|----------H------|--------------H--|
    |-----0-----0-----|-4-----0-------0-|-----0---2-3-----|-2-----0-----2-3-|
    |---2---2-4---4-2-|---2-----2---4---|---2---2-----2---|---2-----2-------|
    |-3---------------|-----3-----3-----|-3-------------3-|-----3-----3-----|
    |-----------------|-----------------|-----------------|-----------------|
    
    |-----------------|-----------------|-----------------|-----------------|
    |-15b----(17)-(15)|-15~~//-------|-----------------|-----------------|
    |-----------------|-------------14--|-14b---(16)------|-----------------|
    |-----------------|-----------------|-----------------|-----------------|
    |-----------------|-----------------|-----------------|-----------------|
    |-----------------|-----------------|-----------------|-----------------|
    |
    |-----------------|-----------------|---------------0-|-----------------|
    |----------0------|-----------------|---------1-----0-|-----------------|
    |-----------------|-----------------|-----------0-----|-----------------|
    |-----2-----------|-----------------|-----2-------2---|-----------------|
    |---2---2---------|-----------------|---2---2---------|-----------------|
    |-0---------------|-----------------|-0---------------|-----------------|
    
    
    |-----------------|-----------------|-----------------|-----------------|
    |-----------------|-----------------|-----------------|-----------------|
    |-----------------|-----------------|-----------------|-----------------|
    |-----------------|-----------------|-----------------|-----------------|
    |-----------------|-----------------|-----------------|-----------------|
    |-----------------|-----------------|-----------------|-----------------|
    |
    |---------0-------|-----------------|---------0-------|---------0-------|
    |-------------0---|-1-----3-----1---|-------------0---|-------0---------|
    |---------------0-|---0-----0-----0-|---------------0-|-----0-----------|
    |-----2-----------|-----2-----2-----|-----2-----------|---2-------------|
    |-------2---------|-----------------|-------2---------|-1---------------|
    |-0---------------|-----------------|-0---------------|-----------------|
    
    
    |-----------------|-----------------|-----------------|-----------------|
    |-----------------|-----------------|-----------------|-----------------|
    |-----------------|-----------------|-----------------|-----------------|
    |-----------------|-----------------|-----------------|-----------------|
    |-----------------|-----------------|-----------------|-----------------|
    |-----------------|-----------------|-----------------|-----------------|
    |
    |---------0-------|-----------------|---------0-------|-----------------|
    |-----------------|-1-----3-----1---|-----------------|-----------------|
    |-------------0---|---0-----0-----0-|-------------0---|-----------------|
    |-----2---------2-|-----2-----2-----|-----2---------2-|-----------------|
    |-------2---------|-----------------|-------2---------|-----------------|
    |-0---------------|-----------------|-0---------------|-----------------|…
  • h    = Hammer-On
    p    = Pull-Off
    p.m. = Palm Muting
    /    = Slide
    ~    = Vibrato
    
    
    Intro:
        p.m......  p.m.....  p.m......   p.m....   p.m.....
    Eb||-----------------------------|-----------------------------|
    Bb||-----------------------------|-----------------------------|
    Gb||-----------------------------|-----------------------------|
    Db||---------4-------------------|-----------------------------|
    Ab||-------------------4---------|-5---------2---------4-5-4-2-|
    Eb||-2-2-2-2---2-2-2-2---2-2-2-2-|---2-2-2-2---2-2-2-2---------|…
  • 1.guitar                                      ()=fill, played
                                                              sometimes
            E                        G   F#   BC  trill      ( D C B ) B   A B
          E|12--------------|--------15--14--|----------------|----------------|…
  • Intro:
    
    RhythmGuitar
    
    |----------------------------------------------------------------|
    |----------------------------------------------------------------|
    |8---8-6-8---8-6-8---8-6-8---8-6-8---8-6-8---8-6-8---7---6-------|
    |8---8-6-8---8-6-8---8-6-8---8-6-8---8-6-8---8-6-8---7---6---4---|
    |6---6-4-6---6-4-6---6-4-6---6-4-6---6-4-6---6-4-6---5---4---4---|
    |------------------------------------------------------------2---|
    
    
    |----------------------------------------------------------------|
    |----------------------------------------------------------------|
    |8---8-6-8---8-6-8---8-6-8---8-6-8---8-6-8---8-6-----------------|
    |8---8-6-8---8-6-8---8-6-8---8-6-8---8-6-8---8-6-4-------6-------|
    |6---6-4-6---6-4-6---6-4-6---6-4-6---6-4-6---6-4-4-------6-------|
    |------------------------------------------------2-------4-------|
    
    Repeat…
  • Intro:
    eb|-----------------------------------------------------------|-------------|
    Bb|------------------------|----------------------------------|-------------|
    Gb|------------------------|----------------------------------|-------------|
    Db|---2-/4-2-4--2-/4--2-4--|--4-/5-4-5---2-/4-2-4--2-/4--2-4--|--4-/5-4-5---|
    Ab|---2--2-2-2--2--2--2-2--|--3--3-3-3---2--2-2-2--2--2--2-2--|--3--3-3-3---|
    Eb|-------------------------------------------------------------------------|
    
    
    Riff…
  • Riff 1:
       Am                        Am
    e|-------------------------|-------------------------|
    B|-------1-----0-----0-----|-------1-----3-----0-----|
    G|-----2---2-----2-----2---|-----2---2-----2-----2---|
    D|---2-------2-----2-----2-|---2-------2-----2-----2-|
    A|-0-----------------------|-0-----------------------|
    E|-------------------------|-------------------------|…
  • Tune to Eb (one Half step down)
    
    Intro                                   Ending 1
    
     C#5
    |--------------------------------------|------------------|
    |--------------------------------------|--10----10-9------|
    |------7-----5--------8p7-7-7p5--------|----7--------7--5-|
    |------------------------------6h7-----|------------------|
    |-5-5----5-5---5-5---------------------|------------------|
    |--------------------------------------|------------------|
    P.M[_]…
  • Tune half step lower (E=Eb, A=Ab etc)
    
    Intro:
    Dm | Dsus2 | Dsus4 | Dm | Dm | Dsus4 | Dsus2 | Dm
    Dm | Dsus2 | Dsus4 | Dm | Bb | Bb    | Gm    | Bb
    
    
      Dm              Dsus2    
    I lost my battle before it starts
      Dsus4…
  • Legend
    
    fb  - full bend
    fbr - full bend then release
    hb  - half bend
    ~   - vibrato
    }}  - tremolo picking
    T   - tap
    
    
    Intro (keyboard section)
     Em (pedal)
    |-3-|-(3)-3-2-|-(2)--5-|-(3)-3-2-|-(2)-7-|-(7)--7-6-|-(6)--7-|-(7)--7-6-|
    |-5-|-(5)-5-4-|-(4)--3-|-(5)-5-4-|-(4)-8-|-(8)--8-7-|-(7)--8-|-(8)--8-7-|
    |---|---------|--------|---------|-------|----------|--------|----------|
    |---|---------|--------|---------|-------|----------|--------|----------|
    |---|---------|--------|---------|-------|----------|--------|----------|
    |---|---------|--------|---------|-------|----------|--------|----------|
    
    Enter…
Наверх