Аккорды Blink 182 - Always

Добавлено: @romashka
Дата добавления: 16 Марта 2013г.
Рейтинг:
0.0
Просмотров: 616
Транспонировать - +
Intro

E|--------------------------------------|
B|-4--~----4--~----4--~----4--~---------|
G|-4-------4-------4-------4------------|
D|-X-------X-------X-------2------------|
A|-2-------4-------X-------2------------|
E|-----------------4-------0------------| (X2)

Verses

E|--------------------------------------|
B|-4-~----4-~----4--~-------------------|
G|-4------4------4----------------------|
D|-X------X------x----------------------|
A|-2------4------x----------------------|
E|---------------4----------------------|

Pre Chorus

E|--------------------------------------|
B|-4--~---------------------------------|
G|-4------------------------------------|
D|-4------------------------------------|
A|-2------------------------------------|
E|--------------------------------------|

Chorus

E|--------------------------------------|
B|--------------------------------------|
G|-4--~--6--~---------------------------|
D|-4-----6-----6-~----2--~--------------|
A|-2-----4-----6------2-----------------|
E|-------------4------0-----------------|

Awhile After Chrous

E|--------------------------------------|
B|--0--4--0--0--4--0--4-----------------|
G|--------------------------------------|
D|--------------------------------------|
A|--------------------------------------|
E|--------------------------------------| A Few Times With Different Ryhme.

Verse
Pre Chorus
Chorus

Awhile After Second Chours

E|--------------------------------------------------------------|
B|--5h6--5--6--5--6---------------------------------------------|
G|---------------------------------4----4-------------4---------|
D|-----------------------1R~-------4----4-----1R~-----4---------|
A|----------------------------4R~--2R~--24-------4R~--2----~-~--|
E|--------------------------------------------------------------|

Drums And Tom Singing .. No Guitars
Pause For While,

Chorus
Awhile After Third Chorus

E|--------------------------------|
B|--4h5--5--5--5------------------|
G|--------------------------------|
D|--------------------------------|
A|--------------------------------|
E|--------------------------------| Repeat Quite A Number Of Times.

End On

E|--------------------------------|
B|--4h5--5--5--5--0R~-------------|
G|--------------------------------|
D|--------------------------------|
A|--------------------------------|
E|--------------------------------|

Lyrics

(Verse)
I've been here before a few times
And I'm quite aware we're dying
And your hands they shake with goodbyes
And I'll take you back if you'd have me

(Pre Chorus)
So here I am I'm trying
So here I am are you ready

(Chorus)
Come on let me hold you touch you feel you
Always
Kiss you taste you all night
Always

(Verse)
And I'll miss your laugh your smile
I'll admit I'm wrong if you'd tell me
I'm so sick of fights I hate them
Lets start this again for real

(Pre Chorus)
So here I am I'm trying
So here I am are you ready
So here I am I'm trying
So here I am are you ready

(Chorus)
Come on let me hold you touch you feel you
Always
Kiss you taste you all night
Always
Touch you feel you
Always
Kiss you taste you all night
Always

(Without Guitar.Pause)
I've been here before a few times
And I'm quite aware we're dying

(Chorus)
Come on let me hold you touch you feel you
Always
Kiss you taste you all night
Always
Touch you feel you
Always
Kiss you taste you all night
Always

Gordonzz.
Наверх