Аккорды Blink 182 - Dumpweed

Добавлено: @romashka
Дата добавления: 16 Марта 2013г.
Рейтинг:
0.0
Просмотров: 450
Транспонировать - +
Intro:
e|-------------------------------------------------------------|
B|-------------------------------------------------------------|
G|--1-1h2p1---------1-1h2p1------2-1-1h2p1-------2-1-1h2p1-4---|
D|2-----------4-2-2------------4-2-----------4-2-2------------4|
A|2--------2-0----2---------2-0--0--------2-0----0----------2--|
E|0---------------0--------------------------------------------|

Interlude for Guitar 1(Repeat 2x):
  E5  A5   B5
e---------------|
B---------------|
G------2---4----|
D--2---2---4----|
A--2---0---2----|
E--0------------|

Interlude for Guitar 2(Repeat 2x):
e|4------4-------2-------2-------4-------4-------5-------5-----|
B|---5-------5-------5-------5-------5-------5-------5-------5-|
G|-4---4---4---4---4---4---4---4---4---4---4---4---4---4---4--4|
D|-------------------------------------------------------------|
A|-------------------------------------------------------------|
E|-------------------------------------------------------------|

Verse(Heavy Palm Muting;Repeat 2x):
   E5        B5        E5        B5
e|-----------------------------------------|
B|-----------------------------------------|
G|-----------4-4-4-4-4-----------4-4-4-4-4-|
D|-2-2-2-2-2-4-4-4-4-4-2-2-2-2-2-4-4-4-4-4-|
A|-2-2-2-2-2-2-2-2-2-2-2-2-2-2-2-2-2-2-2-2-|
E|-0-0-0-0-0-----------0-0-0-0-0-----------|

   A5        B5        A5        B5
e|-----------------------------------------|
B|-----------------------------------------|
G|-2-2-2-2-2-4-4-4-4-4-2-2-2-2-2-4-4-4-4-4-|
D|-2-2-2-2-2-4-4-4-4-4-2-2-2-2-2-4-4-4-4-4-|
A|-0-0-0-0-0-2-2-2-2-2-0-0-0-0-0-2-2-2-2-2-|
E|-----------------------------------------|

It?s understood, I said it many ways
Too scared to run, I?m too scared to stay
I said I?d leave, I could never leave her
And if I did, you know I?d never cheat her
But this I ask, it?s what I want to know
How would you feel, if I should choose to go
Another guy, you think it?d be unlikely
Another guy, you think he?d wanna fight me

Play Intro

Chorus(Play 2x):
   E5        B5        A5        B5
e|-----------------------------------------|
B|-----------------------------------------|
G|-----------4-4-4-4-4-2-2-2-2-2-4-4-4-4-4-|
D|-2-2-2-2-2-4-4-4-4-4-2-2-2-2-2-4-4-4-4-4-|
A|-2-2-2-2-2-2-2-2-2-2-0-0-0-0-0-2-2-2-2-2-|
E|-0-0-0-0-0-------------------------------|

She?s a dove, she?s a fucking nightmare
Unpredictable, it was my mistake to stay here
On the go, it?s way too late to play
I need a girl that I can train

Play Interlude

Play Verse(Play Riff Only Once As Opposed To Twice):

I heard it once, I?m sure I heard it twice
My dad used to give me all of his advice
He would say "you gotta turn your back and run now
Come on, son, you haven?t got a chance now"

Play Intro

Play Chorus(Play Riff 4 Times):

She?s a dove, she?s a fucking nightmare
Unpredictable, it was my mistake to stay here
On the go, it?s way too late to play
I need a girl that I can train
(Repeat Words Twice)

Play Verse(Play Riff Twice):

Need a girl that I can train
Need a girl that I can train
Turn your back and run now
You haven?t got a chance now

(Second Guitar Continues Verse As This* Is Played)
Play 3x
e|-4-----2---2-----2---4-----2---5-----2---|
B|---------5---------5---------5---------5-|
G|---4-4-------4-4-------4-4-------4-4-----|
D|-----------------------------------------|
A|-----------------------------------------|
E|-----------------------------------------|
Наверх