Аккорды Bon Iver - Creature Fear

Добавлено: @romashka
Дата добавления: 18 Мая 2018г.
Рейтинг:
0.0
Просмотров: 246
Транспонировать - +
Capo 2.


     C  Am7  G   Am  F   D7  E7
e|---0---0-------0---0-------0---|
B|---1---1---0---1---1---3---0---|
G|---0---0---0---2---2---2---1---|
D|---2---2---5---2---3---0---0---|
A|---3---0---5---0---3---x---2---|
E|-----------5-----------4---2---|


     *riff*
     G                 F
e|-------------------------------------------------|
B|-------------0------1p0--------------------------|
G|------0h2h3-------------2p0----0-----------------|
D|----------------------------2----2p0-------------|
A|---5---------------------------------3-----------|
E|---5-------------------------------------3-3-3-5-|

      C
I was full by your count

      Am
I was lost but your fool

*riff*G
Was a long visit wrong?

*riff*F
Say you are the only.


G         Am        F
So many foreign worlds,    (so relatively fucked)

D7       G       E7       Am          F
So ready for us, so ready for us, the creature fear


[Verse 2]

      C
I was teased by your blouse

       Am
Spit out by your mouth

*riff*G
I was loud by your lowered

*riff*F
Seminary sold

     C
Tear on, tail on

     Am
Take all on the wind on

*riff*G
Soft bloody nose
*riff*F
Sign another floor...


[Chorus 2]

G         Am      F
So many territories (ready to reform)
D7           G        E7           Am           F
Don't let it form us, don't let it form us, the creature fear
G         Am       F
So did he foil 'is own?  (Is he ready to reform?)
D7      G       E7      Am          F
So many torahs, so many for us, the creature fear.
Наверх