Аккорды Bon Iver - The Wolves (Act I and II)

Добавлено: @romashka
Дата добавления: 18 Мая 2018г.
Рейтинг:
0.0
Просмотров: 241
Транспонировать - +
Tuning: Standard
To get that tone he has live, I simply put my guitar through clean, and turn up the 
high.

verse "someday my pain":
-------------------------------------------------|
-------------------------------------------------|
-----------0h2-------------------2----------0----|
------3~---------3-3-3------------3~----------3~-|x2
------3~---------3-3-3-----3s5~-------1s3~-------|
------1~---------1-1-1---------------------------|

chorus "with the werewolves around you etc":
--------------------------------|
--------------------------------|
--0h2~--------------7~---5~-----|
---------3s8~-------7~---5~-----|  x4 (0h2 and the sliding chord only on the
---------3s8~-------5~---3~-----|      first time, just strum the 886 for
---------1s6~-------------------|      the rest.)

bridge "what might have been lost":

---------------------------|
--------6---5--------------|
---7----7---5--------------|
---8----7---5--------------|
---8----5---3--------------|
---6-----------------------|

^Figure out the strumming by listening to the track, it's pretty easy to hear, strum 
chords softly getting gradually louder as the vocal harmonies build.

outro "someday my pain":

This part is the same as the verse, except slower and softer. End on the chord below.


-------------|
-------------|
-------------|
--------3~---|
--------3~---|
--------1~---|
Наверх