Аккорды Bon Iver - Re: Stacks

Добавлено: @romashka
Дата добавления: 18 Мая 2018г.
Рейтинг:
0.0
Просмотров: 305
Транспонировать - +
Tuning: DADF#AD

Capo 6.

it's almost impossible to have this song make sense in a chord so i'll just show the lyrics and the patterns
listen to the rhythm and timing of the track and you'll get it in a couple of tries.


Chords:

    Verse:                Chorus:               Cрorus Riff:
    Ebsus4   Ab    Fm7    Eb5   F5              C#7M   iguess
e|---0--------------0-----------------------------------------------------|
B|---0-------0------0------0-----0----------------------------------------|
G|---3-------0------1------x-----0----------0--0--0--0-----0--0--0--0-----|
D|---2-------0------0------2-----x----------4--5--4--0-----4--5--4--0-----|
A|---0--------------2------0-----2----------------------------------------|
E|-----------0---------------------------5--5--5--5--5--5--5--5--5--5-----|


[Verse 1]

    Ebsus4      Ab        Fm7        F5         Fm7
e|----0----------------------0----------0----------0---------------------|
B|----0-----------0----------0----------0----------0---------------------|
G|----3-----------0----------1----------1----------1---------------------|
D|----2-----------0----------0----------2----------0---------------------|
A|-0---------------------2----------0----------2-------------------------|
E|-------------0---------------------------------------------------------|


[Verse 2]

   Ebsus4    Ab        Fm7     F5      Fm7           Ab
e|----0-------------------0-------0-------0------0-----------------------|
B|----0--------0----------0-------0-------0------0-----0----------0------|
G|----3--------0----------1-------1-------1------1-----0--0h1-----0--0h1-|
D|----2--------0----------0-------2-------0------0-----0--0-0-----0--0-0-|
A|-0------------------2-------0-------2----------2--------0h2--------0h2-|
E|----------0--------------------------------2-------0----------0--------|


[Chorus]

   Eb5      F5           C#7M  
e|---------------------------------------------------------------------|
B|-0--------0----------------------------------------------------------|
G|-x--------0------------0--0--0--0--0--0--0--0------------------------|
D|-2--------x------------4--5--4--0--4--5--4--0------------------------|
A|-0--------2----------------------------------------------------------|
E|--------------------5--5--5--5--5--5--5--5--5------------------------|


[Intro]

e|----0--0----------------------0----------0----------0---------------------|
B|----0-----4---2----0----------0----------0----------0---------------------|
G|----3--------------0----------1----------1----------1---------------------|
D|----2--------------0----------0----------2----------0---------------------|
A|-0------------------------2----------0----------2-------------------------|
E|----------------0---------------------------------------------------------|

[Verse 2]


[Verse 1]


[Verse 1]

This my excavation and today is kumran


[Verse 2]

Everything that happens is from now on
This is pouring rain
This is paralyzed


[Verse 1]


[Verse 2]


[Verse 1]
I keep throwing it down two-hundred at a time


[Verse 2]

It's hard to find it when you knew it
When your money's gone
And you're drunk as hell


[Verse 1]


[Chorus]

On your back with your racks as the stacks are your load


[Chorus]

In the back and the racks and the stacks of your load


[Chorus]

In the back with your racks and you're un-stacking your load


[Verse 1]

Well I've been twisting to the sun and the moon
I needed to replace


[Verse 2]

The fountain in the front yard is rusted out
All my love was down
In a frozen ground


[Verse 1]

There's a black crow sitting across from me
His wiry legs are crossed


[Verse 2]

He is dangling my keys, he even fakes a toss
Whatever could it be
That has brought me to this loss?


[Chorus]

On your back with your racks as the stacks are your load


[Chorus]

In the back and the racks and the stacks of your load


[Chorus]

In the back with your racks and you're un-stacking your load


[Verse 1]

This is not the sound of a new man or crispy realization


[Verse 2]

It's the sound of the unlocking and the lift away
Your love will be
Safe with me

end on an open strum
Наверх