Аккорды Boston - Peace Of Mind

Добавлено: @romashka
Дата добавления: 01 Августа 2014г.
Рейтинг:
0.0
Просмотров: 343
Транспонировать - +
Intro:                            
----x-x---x-x--x-x-x---x-x-x-x------------------------------
----x-x---x-x--x-x-x---x-x-x-x------------------------------
----6-x---x-x--x-x-x---9-9-x-x-----(Repeat 2x)--------------
d---6-x---7-7--x-x-x---9-9-9-9------------------------------
a---4-x---7-7--x-x-x---7-7-9-9------------------------------
e---x-x---5-5--x-x-x---x-x-7-7------------------------------

------------------------------------------------------------
------------------------------------------------------------
------------------------------------------------------------
----3/5---3------------------3------------------------------
------------7---4-4-4--4-6-7---6-7-6-----4-4-4--4-6-7-------
-------------------------------------7----------------------

------------------------------------------------------------
------------------------------------------------------------
------------------------------------------------------------
--4--6^----4-6^p4---------------3---------------------------
-------------------4-4-4--4-6-7---6-7-6------4-4-4---4-6-7--
-----------------------------------------7------------------

------------------------------------------------------------
------------------------------------------------------------
------------------------------------------------------------
----4-6^---4--6^p4------------------------------------------
--------------------4-4-------------------------------------
------------------------------------------------------------
comments powered by Disqus
Наверх