Аккорды Bruce Dickinson - Tears Of The Dragon

Добавлено: @romashka
Дата добавления: 21 Июля 2018г.
Рейтинг:
0.0
Просмотров: 18
Транспонировать - +
Intrо: Am C }x2

   Am
E|------------------------------------------|
B|------1------0------1------0------0-1-----|
G|--------2------2------2------2------------|
D|---2------2------2------2------2----------|
A|-0----------------------------------------|
E|------------------------------------------|

   C
E|------------------------------------------|
B|------1------0-1----3------1------0-1-----|
G|--------0-------------0------0------------|
D|---2------2------2------2------2----------|
A|-3----------------------------------------|
E|------------------------------------------|

First part:
Am                 
  For too long now,  
C
  there were secrets in my mind
Am                  
  For too long now,
C
  there were things I should've said
Am                 
  In the darkness, 
C  
  I was stumbling for the door
Am                  
  To find a reаson, 
C  
  to find the time, the place, the hour

Second Part:
1.  Am
E|----------0--------------------0----------|
B|-----1------1-------------1------1--------|
G|-------2------2-------------2------2------|
D|---2------------2-------2------------2----|
A|-0--------------------0-------------------|
E|------------------------------------------|

2. Em
E|----------0-------------------0-----------|
B|-----0------0------------0------0---------|
G|-------0------0------------0------0-------|
D|---2------------2------2------------2-----|
A|------------------------------------------|
E|-0-------------------0--------------------|

3. G
E|----------3-------------------------------|
B|-----3------3-----------------------------|
G|-------0------0---------------------------|
D|---0------------0-------------------------|
A|------------------------------------------|
E|-3----------------------------------------|

4. D: ↓  ↓↑ ↓↑ ↓↑

5. Am
E|--------------------------0---------------|
B|-3--1--0h1p0-1--------1------1------------|
G|-2--2--2-----2----------0------2----------|
D|-2--2--2-----2------2------------2--------|
A|-0--0--0-----0----0-----------------------|
E|------------------------------------------|

6.  Em
E|----------0-------------------0-----------|
B|-----0------0------------0------0---------|
G|-------0------0------------0------0-------|
D|---2------------2------2------------2-----|
A|------------------------------------------|
E|-0-------------------0--------------------|

7.  G
E|---------3-------------------3------------|
B|------3------3------------3------3--------|
G|-------0------0------------0------0-------|
D|---0------------0------0------------0-----|
A|------------------------------------------|
E|-3-------------------3--------------------|

8. D :   ↓     ↓↑↓      ↓↑↓↑↓     ↓↑↓↑

Am                 Em       
  Waiting for the winter sun 
          G             D
and the сold light of day
Am                     Em
  The misty ghost of сhildhood fears
      G                         D
The pressure is building and I can't stay away.

Chorus:
     Em    C      G      D
I throw myself into the sea
   Em        C
Release the wave
        G         D
Let it wash over me
    Em       C     G       D
To face the fear I onсe believed
     Em            C         G           D
The tears of the drаgon for you and for me

Repete the First Part:
Am             C
  Where I was,   I had wings that сouldn't fly
Am             C
  Where I was,   I had tears I сouldn't cry
Am             C
  My emotions,   frozen in an icy lake
Am                     
  I сouldn't feel them   
C
  until the ice began to break

Repete the Second Part:
Am                Em               G         D
  I have no power over this, you know I'm afraid
Am                        Em      
  The walls I built are crumbling, 
      G
  the water is moving
      D
I'm slipping away

Chorus:
     Em    C      G      D
I throw myself into the sea
   Em        C
Release the wave
        G         D
Let it wash over me
    Em       C     G       D
To face the fear I onсe believed
     Em            C         G           D
The tears of the drаgon for you and for me

Third Part: Am G F G
            Am A5(IX) Am A4 Am A5(IX) Am
            Dm C G

1.   Am
E|------------------------------------------|
B|-1-1--------------------------------------|
G|-2-2--2--2-2-2--4--x/-5-5-----------------|
D|-2-2--2--2-2-2----------------------------|
A|-0-0--0--0-0-0--2--x/-3-3-----------------|
E|------------------------------------------|

   Am
E|------------------------------------------|
B|-1-1--------------------------------------|
G|-2-2--2--2-2-2--4--x/-5-5---5-5-----------|
D|-2-2--2--2-2-2----------------------------|
A|-0-0--0--0-0-0--2--x/-3-3---3-3-----------|
E|------------------------------------------|

2.
E|------------------------------|
B|------------------------------|
G|-5/7--7-7-7---7-7--7-7----7-7-|
D|------------------------------|
A|-3/5--5-5-5---5-5--5-5----5-5-|
E|------------------------------|

E|-----------------------|
B|-----------------------|
G|-7 --5-5-5---4-x-------|
D|-------------------5-5-|
A|-5 --3-3-3---2-x-------|
E|-------------------3-3-|

3.  Am
E|---------------------------|
B|-1-1-----------------------|
G|-2-2--2--2-2-2--4--x/-5-x/-|
D|-2-2--2--2-2-2-------------|
A|-0-0--0--0-0-0--2--x/-3-x/-|
E|---------------------------|

4.
E|------------------------|
B|------------------------|
G|-7-7/9--9-9-9--9-9--9-9-|
D|------------------------|
A|-5-5/7--7-7-7--7-7--7-7-|
E|------------------------|

5.
E|-----------------------------|
B|-x-x---4/6--6-6-6---6/8--6-6-|
G|-x-x---3/5--5-5-5---5/7--5-5-|
D|-x-x---5/7--7-7-7---7/9--7-7-|
A|-----------------------------|
E|-----------------------------|

6. C : ↓↑↓  ↓↑↓
   G : ↓↑↓  ↓↑↓

7.
E|---------------------------|
B|-6/8--8-8-8-----6/8--8-8-8-|
G|-3/5--5-5-5-----3/5--5-5-5-|
D|-5/7--7-7-7-----5/7--7-7-7-|
A|---------------------------|
E|---------------------------|

E|--------------------5--5-5-5---5-5--5-5-|
B|-6/8--8-6/8--8-8-8--8--8-8-8---8-8--8-8-|
G|-3/5--5-3/5--5-5-5--5--5-5-5---5-5--5-5-|
D|-5/7--7-5/7--7-7-7--7--7-7-7---7-7--7-7-|
A|----------------------------------------|
E|----------------------------------------|

8.
E|-5/7--7-7-7--10---7-7---|
B|-6/8--8-8-8--8--8-8-8-8-|
G|-5/7--7-7-7--7--7-7-7-7-|
D|-7/9--9-9-9--9--9-9-9-9-|
A|------------------------|
E|------------------------|

E|-3/5--5-5--8-5---5/7--7-7--10--7-|
B|-4/6--6-6--6-6---6/8--8-8--8---8-|
G|-3/5--5-5--5-5---5/7--7-7--7---7-|
D|-5/7--7-7--7-7---7/9--9-9--9---9-|
A|---------------------------------|
E|---------------------------------|

9.   Am
E|--------------------------|
B|-1------------------------|
G|-2--2-2-2--5-x--5-5/7-7/9-|
D|-2--2-2-2-----------------|
A|-0--0-0-0--2-x--3-3/5-5/7-|
E|--------------------------|

E|--------------------|
B|--------------------|
G|-9--9-9-9--10-x-9-9-|
D|--------------------|
A|-7--7-7-7--8--x-7-7-|
E|--------------------|

10.
E|-3/5---5-5-5----5-5--5-5-----|
B|-4/6---6-6-6----6-6--6-6---x-|
G|-3/5---5-5-5----5-5--5-5---x-|
D|-5/7---7-7-7----7-7--7-7---x-|
A|-----------------------------|
E|-----------------------------|

11. C : ↓↓↓            
    G : ↓↓↓

Fourth Part: Am Dm Em }x3 
             Am Dm C G

       Am
E|------------------------------------------|
B|-1-1--1-1-------1------1-1-----1----------|
G|-2-2--2-2-------2--x---2-2-----2----------|
D|-2-2--2-2-------2--x---2-2-----2----------|
A|-0-0--0-0---3b--0--x-----0-3b--0----------|
E|---------------------0-3------------------|

   Dm              Em
E|-1-1-1---1-1------------------------------|
B|-3-3-3---3-3--x--0-0-0------0-------------|
G|-2-2-2---2-2--x--0-0-0------0-------------|
D|-0-0-0---0-0--x--2-2-2------2-------------|
A|-------3---------2-2-2------2-------------|
E|-----------------0-0-0--3b--0-------------|

Repete the Second Part:
Am           Em     G       D
  Slowlу I awake, slowlу I rise
Am                        Em
  The walls I built are crumbling
     G
The water is moving
      D
I'm slipping away

Chorus: x2 
     Em    C      G      D
I throw myself into the sea
   Em        C
Release the wave
        G         D
Let it wash over me
    Em       C     G       D
To face the fear I onсe believed
     Em            C         G           D
The tears of the drаgon for you and for me
     Em    C      G      D
I throw myself into the sea
   Em        C
Release the wave
        G         D
Let it wash over me
    Em       C     G       D
To face the fear I onсe believed
     Em            C         G           D
The tears of the drаgon for you and for me

Final: Am C/F# G Em

   Am            C/F#
E|------------------------------------------|
B|-----1------1--0------1-----1-------------|
G|-------2---------0------0-----------------|
D|---2-----2---------2------2---------------|
A|-0----------------------------------------|
E|---------------2--------------------------|

   G                 Em
E|----------------------------0-------------|
B|-0-----1-----1---------0------------------|
G|---0-----0-----0---------0----------------|
D|-----0-----0---------2--------------------|
A|------------------------------------------|
E|-3-----------------0--------0-------------|
comments powered by Disqus
Наверх