Аккорды Буерак - Страсть к курению

Добавлено: @romashka
Дата добавления: 05 Августа 2017г.
Рейтинг:
0.0
Просмотров: 1 347
Транспонировать - +
Intro:
                               Am                       C          
e|---------------------------|---7-7-----------7-7--------------------------------------------------|
B|---------------------------|--------8-8-----------8-8------------------8-----------------8--------|
G|---------------------------|-------------9---9-----------------10-10-9-----------10-10-9----------| x4
D|-10-10-10-10-10-10-9-9-9-7-|-7----------------------- 10---10-----------10---10-----------7-------|
A|---------------------------|----------------------------------------------------------------------|
E|---------------------------|----------------------------------------------------------------------|

Verse:
e|-------------------------------------|
B|--------8-8--------------------------|
G|------------9-----------10-10-9------|
D|--7---7-------10-7----7---------10-7-|
A|-------------------------------------|
E|-------------------------------------|

Solo:
e|----|-----------------------------------------|
B|----|-10-10-10-13-13-13-----------------------|
G|----|-------------------9--9-9-9-10-10-10-9---| x12
D|-10-|-----------------------------------------|
A|----|-----------------------------------------|
E|----|-----------------------------------------|

Verse 2:
e|------7-------10----7--|
B|----8------8------8----|
G|----------9------------|
D|--7-------------7------|
A|-----------------------|
E|-----------------------|
Наверх