Аккорды Буерак - На старых сидениях кинотеатра

Добавлено: @romashka
Дата добавления: 14 Марта 2020г.
Рейтинг:
0.0
Просмотров: 26
Транспонировать - +
e|-----------------------------------------------------------------------------------------------------------|
B|-4-4-------4---6-6-6-4--4-4-4-4-4-------4---6-6-6-4--3-3-1-------1--1-1--3-3-3-3--------------------------|
G|-----3---3---3--------------------3---3---3-----------------1---1-----------------0-----0-----0-----0------|
D|-------5----------------------------5-------------------------1-------------------1-1-1-1-1-1-1-1-1-1-1-1-1|
A|-----------------------------------------------------------------------------------------------------------|
E|-----------------------------------------------------------------------------------------------------------|   4х


 Cm
На старых сидениях кинотеатра
   D#                          Fm
В лучах прожектора мы с тобою вдвоём
      D#
Мы одни

Verse:
   Cm
Ты смотришь на героев с экрана
    D#                          Fm
Мне так сложно сидеть с тобою спокойно
              D#
Моя тревога внутри

   Cm
На старых сидениях кинотеатра
  D#
Время погасило все лампы
Fm                    D#
И кассир сидит весь в пыли

  Cm
Дверь в кинозал скрипит в такт моим нервам
      D#
Я по счёту второй, а может быть первый
   Fm                       D#
В заголовке совсем ненужной любви

(Квинты)
Cm                               D#
Добрый день, что то вас давно не видно
Ab                          D#
Неужели, у вас всё стало хорошо
(Аккорды)
Cm               D#
Я вас видела на каждом кинофильме
Ab                         D#
Вы погружали голову на моё плечо

Cm                               D#
Добрый день, что то вас давно не видно
Ab                          D#
Неужели, у вас всё стало хорошо
Cm               D#
Я вас видела на каждом кинофильме
Ab                         D#
Вы погружали голову на моё плечо

 Некая перебивочка после припева
 
e|-----------------------------------|
B|---4*------------------------------|
G|---5-------------0-----------------|
D|---6-------------1-----------------|
A|-----------------------------------|
E|-----------------------------------| x2

 Концовка:
e|---11-11-11-11-11-11-11-------------------11-11-11-11-11-11-11-----------------------|
B|------------------------13-13-11-11-11h13----------------------13-13-13-11-11-11-11-|
G|-------------------------------------------------------------------------------------|
D|-------------------------------------------------------------------------------------|
A|-------------------------------------------------------------------------------------|
E|-------------------------------------------------------------------------------------|
 
e|------------------------------------------------------------|
B|-8-8-8-8-8-8-8-8-8-8-6-6-6-6-8-8-8-8-8-8-8-8-8-8-6-6-6-6----|
G|------------------------------------------------------------|
D|------------------------------------------------------------|
A|------------------------------------------------------------|
E|------------------------------------------------------------|

comments powered by Disqus
Наверх