Аккорды Бутырка - Голубка

Добавлено: @romashka
Дата добавления: 11 Апреля 2019г.
Рейтинг:
0.0
Просмотров: 49
Транспонировать - +
Вступление: Em Am D B7 }x2 

e|-2-0-----------------0-2-3-2---------------0-0-2-3-2---------------0-2-3-2-0---------------2-3-|
B|-----0-------------0---------1-----0-0-1-1-----------1-----0-0-1-1-----------0-----------4-----|
G|---------------0-0-------------2-2---------------------2-2---------------------2-4/7-5-4-------|
D|-------2-2-4-4---------------------------------------------------------------------------------|
A|-----------------------------------------------------------------------------------------------|
E|-----------------------------------------------------------------------------------------------|

e|-2-0-----------------0-2-3-2---------------0-0-2-3-2---------------0-2-3-2-0-------------|
B|-----0-------------0---------1-----0-0-1-1-----------1-----0-0-1-1-----------0-----------|
G|---------------0-0-------------2-2---------------------2-2---------------------2-4/7-5-4-|
D|-------2-2-4-4---------------------------------------------------------------------------|
A|-----------------------------------------------------------------------------------------|
E|-----------------------------------------------------------------------------------------|

        Em
А в лагерях был как всегда обычный день
                                     E
Все так же в черном, ничего не предвещало.
            Am
И вдруг мгновенно все затихло, замерло
                                B7
А взгляды устремились в мир бескрайний.
            Am                   Em
И вдруг мгновенно все затихло, замерло
          Am                    B7
А взгляды устремились в мир бескрайний.
          E                         Am
Там в небесах кружили так голубка с голубем,
          D                      G  E
Что от красивой пары глаз не оторвать.
       Am            B7        C
Не торопи, конвой, и дай налюбоваться
        Am                      B7
На ту любовь, которой не было у нас.
          E                         Am
А над тюрьмой кружили так голубка с голубем,
         D                        G E
В округе не было счастливей, чем они.
       Am         B7        C
И каторжанская слеза не удержалась —
        Am            B7        Em
За ту любовь, которой не было у нас.

          Em
Никто не станет вслух об этом говорить,
                                 E
И по хаткам не будет бурных обсуждений.
           Am
На всех пернатую любовь не разделить,
                                B7
Она подарит лишь надежду на мгновенье.
           Am                   Em
На всех пернатую любовь не разделить,
      Am                        B7
Она подарит лишь надежду на мгновенье.
          E                         Am
Там в небесах кружили так голубка с голубем,
          D                      G E
Что от красивой пары глаз не оторвать.
       Am            B7        C
Не торопи, конвой, и дай налюбоваться
        Am                      B7
На ту любовь, которой не было у нас.
          E                         Am
А над тюрьмой кружили так голубка с голубем,
         D                        G E
В округе не было счастливей, чем они.
       Am         B7        C
И каторжанская слеза не удержалась —
        Am            B7        Em
За ту любовь, которой не было у нас.

Проигрыш: Em Am D B7

Модуляция на полутон: C7

e|-2-0-----------------0-2-3-2---------------0-0-2-3-2---------------0-2-3-2-0--------------0-6-4-|
B|-----0-------------0---------1-----0-0-1-1-----------1-----0-0-1-1-----------0------------------|
G|---------------0-0-------------2-2---------------------2-2---------------------2-4/7-5-5--------|
D|-------2-2-4-4----------------------------------------------------------------------------------|
A|------------------------------------------------------------------------------------------------|
E|------------------------------------------------------------------------------------------------|

        Fm
Не повторится это больше никогда,
                                   F
Не прилетит к нам птица мира на свиданье.
  A#m
Останется лишь в памяти ЗК,
                            C7
Красивый этот вальс под облаками.
  A#m                    Fm
Останется лишь в памяти ЗК,
   A#m                      C7
Красивый этот вальс под облаками.
          F                         A#m
Там в небесах кружили так голубка с голубем,
          D#                     G# F
Что от красивой пары глаз не оторвать.
       A#m           C7        C#
Не торопи, конвой, и дай налюбоваться
        A#m                     C7
На ту любовь, которой не было у нас.
          F                         A#m
А над тюрьмой кружили так голубка с голубем,
         D#                       G# F
В округе не было счастливей, чем они.
       A#m        C7        C#
И каторжанская слеза не удержалась —
        A#m           C7        Fm
За ту любовь, которой не было у нас.
        A#m           C7        Fm
За ту любовь, которой не было у нас.

Fm A#m D# C7 }x2 

Outro:
e|-3-1-----------------1-3-4-3---------------1-1-3-4-3---------------1-3-4-3-1---------------3-4-|
B|-----1-------------1---------2-----1-1-2-2-----------2-----1-1-2-2-----------1-----------5-----|
G|---------------1-1-------------3-3---------------------3-3---------------------3-5/8-6-5-------|
D|-------3-3-5-5---------------------------------------------------------------------------------|
A|-----------------------------------------------------------------------------------------------|
E|-----------------------------------------------------------------------------------------------|

e|-3-1-----------------1-3-4-3---------------1-1-3-4-3---------------1-3-4-3-1-----------------------|
B|-----1-------------1---------2-----1-1-2-2-----------2-----1-1-2-2-----------1---------------------|
G|---------------1-1-------------3-3---------------------3-3---------------------3-5/8-6-5-3-5/8-6-5-|
D|-------3-3-5-5-------------------------------------------------------------------------------------|
A|---------------------------------------------------------------------------------------------------|
E|---------------------------------------------------------------------------------------------------|
comments powered by Disqus
Наверх