Аккорды Бутырка - Вы не спешите говорить

Добавлено: @romashka
Дата добавления: 01 Мая 2019г.
Рейтинг:
0.0
Просмотров: 41
Транспонировать - +
Вступление: Dm Gm Dm Gm A# A7

e|---3-3-3-1-0-1------1-1-1-0-----------------------3-3-3-1-0-|
B|-3--------------------------3-3--------------1--------------|
G|---------------3--3-------------2----------2---3------------|
D|-------------------------------------0-2-3------------------|
A|-----------------------------------0------------------------|
E|------------------------------------------------------------|

                   Dm
 Вы не спешите говорить,
                      Gm
 Не тороплю я вас с ответом,
 C                   F
 Его готов я ждать всю жизнь
 Gm                    A7
 И буду жить надеждой этой.
                       Dm
 Без вас я просто не живу,
                       Gm
 А лишь тихонько существую,
 C                  F
 И в памяти своей храню
 Gm                      A7
 Мне встречу сердцу дорогую.

                        Gm
 А вы лишь взгляд остановите,
    A7                        Dm
 Скажите, будто рады встрече мне,
 Dm                        Gm
 Тетрадь стихов — багаж поэта
 A#         C         F
 Все, что имею при себе.
 Cm            D7        Gm
 А вы лишь взгляд остановите
 A                A#
 И не спешите уходить,
 A#                     Dm
 Ведь для меня это мгновенье,
 Gm         A               Dm
 Глоток любви, чтоб дальше жить.

Проигрыш: Dm Gm Dm Gm A# A7

e|---3-3-3-1-0-1------1-1-1-0-----------------------3-3-3-1-0-|
B|-3--------------------------3-3--------------1--------------|
G|---------------3--3-------------2----------2---3------------|
D|-------------------------------------0-2-3------------------|
A|-----------------------------------0------------------------|
E|------------------------------------------------------------|

                       Dm
 Без вас проходят мои дни
                    Gm
 И вновь Есенинская осень
 C                    F
 Прошепчет тихо нам двоим,
 Gm                       A7
 Что к нам зима опять приходит.
                        Dm
 Позвольте письма вам писать,
                        Gm
 Воздушный поцелуй в конверте,
 C                         F
 Где в каждой строчке — о любви,
 Gm                          A7
 Где в каждой строчке — о надежде.

                        Gm
 А вы лишь взгляд остановите,
    A7                        Dm
 Скажите, будто рады встрече мне,
 Dm                        Gm
 Тетрадь стихов — багаж поэта
 A#         C         F
 Все, что имею при себе.
 Cm            D7        Gm
 А вы лишь взгляд остановите
 A                A#
 И не спешите уходить,
 A#                     Dm
 Ведь для меня это мгновенье,
 Gm         A               Dm
 Глоток любви, чтоб дальше жить.

Проигрыш: Dm Gm Dm Gm A# A7

e|---3-3-3-1-0-1------1-1-1-0-----------------------3-3-3-1-0-|
B|-3--------------------------3-3--------------1--------------|
G|---------------3--3-------------2----------2---3------------|
D|-------------------------------------0-2-3------------------|
A|-----------------------------------0------------------------|
E|------------------------------------------------------------|
comments powered by Disqus
Наверх