Аккорды Бутырка - До дома, до старого Дона

Добавлено: @romashka
Дата добавления: 20 Мая 2020г.
Рейтинг:
0.0
Просмотров: 26
Транспонировать - +
Вступление: Bm Em F#7 Bm F#7 Bm Em Bm F#7 Bm

e|------------------------------------------------------------------|
B|---------------------------------5----------5----------5----------|
G|---7-6------------7-6--------------7----------7----------7-6--7---|
D|-4-----4-2-4--4-4-----5-4-5--5-5-----4--4-4-----4--4-4----------4-|
A|------------------------------------------------------------------|
E|------------------------------------------------------------------|

e|---------------------------------------------------------------|
B|-----------------------------------5---------------------------|
G|-----7-6------------7-6--------------7--------7-6--------7-6-4-|
D|-4-4-----4-2-4--4-4-----5-4-5--5-5-----4--4-4-----2--2-2-------|
A|---------------------------------------------------------------|
E|---------------------------------------------------------------|

   Bm               Em
До дома, до старого Дона,
                 F#7            Bm
Где встретит с порога, уставшая мать
             B7                  Em
Под ветками клёна, осталось так много
               C#                  F#7
И слезы при встрече, нам с ней не сдержать.
  Bm                    Em
А сердце, что чувствует сердце?
           F#7                Bm
И хочет согреться, и хочет тепла.
            B7                  Em
От доброго слова, от взгляда родного
           Bm   F#7          Bm
Ему станет легче, а значит жива.

Припев:
   F#7              Bm
До дома, до старого Дона,
                 B7             Em
Где встретит с порога, уставшая мать.
   F#7              G  B7
До дома, до старого Дона,
               Em          F#7        Bm
И слезы при встрече, нам с ней не сдержать.

Проигрыш: Bm Em F#7 Bm F#7 Bm Em Bm F#7 Bm G

e|------------------------------------------------------------------|
B|---------------------------------5----------5----------5----------|
G|---7-6------------7-6--------------7----------7----------7-6--7---|
D|-4-----4-2-4--4-4-----5-4-5--5-5-----4--4-4-----4--4-4----------4-|
A|------------------------------------------------------------------|
E|------------------------------------------------------------------|

e|---------------------------------------------------------------|
B|-----------------------------------5---------------------------|
G|-----7-6------------7-6--------------7--------7-6--------7-6-4-|
D|-4-4-----4-2-4--4-4-----5-4-5--5-5-----4--4-4-----2--2-2-------|
A|---------------------------------------------------------------|
E|---------------------------------------------------------------|

(Модуляция на полутон)

   Cm                   Fm
До дома, а там глядишь снова
         G7                 Cm
Этап и дорога, а солнце в зенит.
               C7                   Fm
Не выйти, не взвиться, душа ввысь стремится,
          Cm   G7          Cm
А черная птица, над нами парит.

Припев:

   G7               Cm
До дома, до старого Дона,
                 C7             Fm
Где встретит с порога, уставшая мать.
   G7               G# C7
До дома, до старого Дона,
               Fm          G7         Cm
И слезы при встрече, нам с ней не сдержать.
Наверх