Аккорды Butterfly Temple - Берегиня

Добавлено: @romashka
Дата добавления: 04 Ноября 2018г.
Рейтинг:
0.0
Просмотров: 5
Транспонировать - +
Вся песня:
     Em                 Em7                   Am
E|--12----------------|--10----------------|--8-----10----8---------|
B|--12----------------|--12----------------|--10---------------10---|
G|--12----------------|--12----------------|--9---------------------|
D|--------------------|--------------------|------------------------|
A|--------------------|--------------------|------------------------|
E|--------------------|--------------------|------------------------|

  Em                  Am                     Cm         Em                                 
|--7----------------|--5----7----5---------|--3---------3---------|
|--8----------------|--5--------------7----|--4---------4---------|
|--9----------------|--5-------------------|-------5---------5----|
|-------------------|----------------------|----------------------|
|-------------------|----------------------|----------------------|
|-------------------|----------------------|----------------------|

   Bm                     Em                     Em                    
|--2---------2---------|--0---------0---------|--0--|
|--3--------------3----|--0--------------0----|--0--|
|-------4--------------|-------0--------------|--0--|
|----------------------|----------------------|-----|
|----------------------|----------------------|-----|
|----------------------|----------------------|--0--|

Искал твои слезы в апрельском дожде,
В огне увидел глаза.
Северный ветер принес шелест губ,
Лик приоткрыла гроза.
Нити-дороги, следы в колее
Тайный шепот реки,
Руны ветвей, камни на дне,
След на песке от руки...
В сполохах ночью услышал твой смех,
Шепнул имя туман.
За руку взяв, повел по воде,
Тебя в берегине узнав...
 
comments powered by Disqus
Наверх