Аккорды «Calvin Harris»

Calvin Harris
Адам Ричард Уайлс (англ. Adam Richard Wiles; род. 17 января 1984, Дамфрис, Шотландия), известен всему миру под псевдонимом Кельвин Харрис (анл. Calvin Harris) — невероятно талантливый шотландский музыкант, композитор, диджей и продюсер. Получил титул «Короля электропопа» за свой дебютный альбом «I Created Disco» (2007), ставший золотым и содержавший успешные синглы «Acceptable in the 80s» и «The Girls», которые достигли топ-10 чарта Великобритании. Кельвин также был автором и продюсером записей… Читать полностью... Адам Ричард Уайлс (англ. Adam Richard Wiles; род. 17 января 1984, Дамфрис, Шотландия), известен всему миру под псевдонимом Кельвин Харрис (анл. Calvin Harris) — невероятно талантливый шотландский музыкант, композитор, диджей и продюсер. Получил титул «Короля электропопа» за свой дебютный альбом «I Created Disco» (2007), ставший золотым и содержавший успешные синглы «Acceptable in the 80s» и «The Girls», которые достигли топ-10 чарта Великобритании. Кельвин также был автором и продюсером записей других артистов, включая пластинки Кайли Миноуг «X» и «Aphrodite», хиты Рианны «Where Have You Been», Scissor Sisters «Only the Horses», Шерил Коул «Call My Name» и множество других. 1984—2006: Юность и начало карьеры Харрис родился 17 января 1984 года в Данфилсе. Ещё в детстве его привлекла электронная музыка и он начал записывать демоверсии у себя дома в 1999 году. В соответствии с газетой News of the World, когда он начал заниматься музыкой, Кальвин стал замкнутым и стеснительным, начав стесняться своей известности. Впервые удача улыбнулась ему, когда песни «Da Bongos» и «Brighter Days» были выпущены как грамофонный сингл на Prima Facie label в начале 2002 года под псевдонимом Stouffer. Харрис подписал контракт с EMI (издание) и Sony BMG (запись) в 2006 году, когда его музыка стала открытием в социальной сети MySpace. Кальвин неожиданно переехал из Лондона на свою родину в Дамфрис, так как не мог найти работу. Он смог выпустить только одну песню в 2004 году с певцом Ayah Marar, вошедшей в сборник The Unabombers' 'Electric Soul 2'. 2006-07: I Created Disco Дебютный альбом I Created Disco был выпущен 29 июня 2007 года. На нём прослеживается влияние музыки 1980-х годов и стиля электроклэш. Для продвижения I Created Disco, Харрис организовал тур по Великобритании, выступая перед Faithless и Groove Armada. Первым синглом с альбома стала песня «Vegas», вышедшая ограниченым изданием на виниле. Первым синглом, попавшим в чарты стал «Acceptable in the 80s», трибьют стилю и эпохи того десятилетия. Песня попала в первую десятку UK Singles Chart, оставаясь в нём 15 недель. „The Girls“ стал вторым синглом, и он попал в топ 5 в британских чартах среди синглов. Четвёртым синглом стала композиция Merrymaking at My Place», ставшая 43 в британском чарте. В 2007 году Харрис записывался с Кайли Миноуг. Для неё он написал и спродюсировал 2 песни для альбома X: 'In My Arms' и 'Heart Beat Rock'. Также он работал с британской поп-звездой Софи Эллис-Бекстор, также написав новые песни для её четвёртого альбома. В 2008 году Кальвин сотрудничал с рэппером Dizzee Rascal в его песне «Dance wiv Me». 2009-present: Ready for the Weekend Харрис начал работу вскоре после релиза своего дебютного альбома I Created Disco. Первые треки были записаны в 2008 году. 3 апреля 2008 года Кальвин заявил о том, что имевшаяся копия его нового альбома была утеряна вместе с его лептопом в 5 теминале аэропорта Хитроу. Позже в эфире радио BBC во время фестиваля в Гластонбери 2008 года он сообщил о возвращении ему его багажа, включая и записи нового альбома. Недавно Харрис признался в том, что солгал, поскольку альбома вообще не было в багаже, и что он надеялся, таким образом выйграть время для окончания записи. Первый сингл «I’m Not Alone» была впервые исполнена на Новый год в Сиднее. Премьера песни состоялась на BBC Radio 1 23 января 2009 года в шоу Пита Тонга, и выпущена была в апреле 2009 года, с ходу став #1 в британском чарте. Сингл «Ready for the Weekend» стал #3 в UK Singles Chart. Харрис устроил мировое турне по Великобритании, Ирландии, Франции, Голландии и США для продвижения новой пластинки. В июне 2009 года, NME анонсировал, что альбом Ready for the Weekend выйдет 17 августа 2009 года. Песни с него «Holiday» и «Ready for the Weekend» попали в радиоэфир. Скрыть...
Популярные аккорды Calvin Harris:
алфавиту | просмотрам | случайно
  • Tuning: EADGBE
    
    e|------------------------о----|
    B|----о----о----3----3---------|
    G|-----------------------------|
    D|-----------------------------|
    A|----о----о----2----2----3----|
    E|-----------------------------|
    
    e|----о--------------|
    B|---------3----1----|
    G|-------------------|
    D|-------------------|
    A|----3----2----о----|
    E|-------------------|
    
    e|----3----3----7----7----о----|
    B|-----------------------------|
    G|--------------о----о---------|
    D|-----------------------------|
    A|------------------------3----|
    E|----о----о-------------------|
    
    e|----о-------------|
    B|--------3----1----|
    G|------------------|
    D|------------------|
    A|----3---2----о----|
    E|------------------|
    
    Nоw…
  • Here's 2 ways to play the main riff:
    1st way :)
    e-------------------------------------------------------------------|
    B----13--13--13--13--12--12--12--12-12-12-12-12---------------------|
    G--12--12--12--12--12--12--12--12--9--9--9--9-----12--12--12--12----|
    D-----------------------------------------------10--10--10--10------|
    A-------------------------------------------------------------------|
    E…
  • Verse:
    Em       D       Bm           Am
     Why wait to say, at least I did it my way
    Em        D           Am
     Lie awake, two faced
    But in my heart I understand
    Em     D       Bm          Am
     I made my move and it was…
  • Am G Em F
    Am                  G
    I can't believe that every day and every night
    Em                    C
    These people better leave you out of my life
    Am                      G
    It's like a fantasy setting out, now I'm…
  • Am     F
     Baby, this is what you came for
    G           C                       Am   F
     Lightning strikes every time she moves
         G                       C
     And everybody's watching her, but she's looking at...…
  • Verse I:
                  Em        C
    I want you to breathe me
                   Am
    Let me be your air
                     Em         C
    Let me roam your body freely
                 Am
    No inhibition, no fear
    
    Chorus:…
  • Tuning: Standard
    
    Intro: Based off of the bass tab, this is about right for the song
    |-------------------------------------------------------------|
    |-------------------------------------------------------------|strum…
  • G               Em              Bm              A
    e|-----------------------------------------------------------------|
    B|-----3-------3-------0-------0-------3-------3-------2-------2---|
    G|---------------0---------------0-----------4---4-----------2---2-|
    D|-----------0---------------2-------4-----4---------2-----2-------|
    A|---2-----2---------2-----2-------2-----2---------0-----0---------|
    E|-3-----3---------0-----0-----------------------------------------|
    
    Verse…
  • Em
    Let's go! 
    Make no excuses now 
    C
    I'm talking here and now 
    D
    I'm talking here and now 
    
    Let's go! 
    Your time is running out 
    I'm talking here and now 
    I'm talking here and now 
    
    It's not about what you've…
  • E:---------------------------------------------------|
    B:---------------------------------------------------|
    G:---------------------------------------------------|
    D:---------------------------------------------------|
    A:---------------------------------------------------|
    E:…
  • Intro: G# Cm A# Fm
    
    Little tab here for the Intro and Verse:
    E--------3~----------------6~-----------------------3~----------|
    B-----4~---------------8~----------6~---8~-------4~-------------|
    G---------------------------------------------------------------|
    D---------------------------------------------------------------|
    A---------------------------------------------------------------|
    E---------------------------------------------------------------|
    
    (Listen…
  • The entire song uses the same 4 chords throughout repeated..
     
    These are the four chords:
    e|----0-----0----0-----0----|
    B|----0-----0----0-----0----|
    G|----9-----8----11----10---|
    D|----10----9----12----11---|
    A|----10----9----12----11---|
    E|----8-----7----10----9----|…
  • A   B   C#m   Abm
    e|-----5-----7-----9-------4-------------------------------------------------|
    B|-----5-----7-----9-------4-------------------------------------------------|
    G|-----6-----8-----9-------4-------------------------------------------------|
    D|-----7-----9-----11------6-------------------------------------------------|
    A|-----7-----9-----11------6-------------------------------------------------|
    E|---5-5---7-7---9-9-----4-4-------------------------------------------------|
    
    Play…
  • Verse: "I don't care what you dress like, or who you are"
      A      Eadd9   E6     F#m 
    e:-12-12----14-14--------------------||
    B:-14-14----12-12----14-14----14-14-.||
    G:-14-14----13-13----13-13----14-14--|| x however
    D:-------------------14-14----16-16-.||
    A:-----------------------------------||
    E:-----------------------------------||
    
    Chorus:…
Наверх