Аккорды Chic - Good Times

Добавлено: @romashka
Дата добавления: 17 Сентября 2018г.
Рейтинг:
0.0
Просмотров: 26
Транспонировать - +
     Intro                                                                        
G||-----------------------|--------------------------|----------------------|
D||*----------------------|--------------------0--2--|----------------------|
A||*----------------------|-----------0--2--4--------|--0----0----0-------0-|
E||---0----0----0-------0-|---0-1--2-----------------|----------------------|


                 Play several times                         
------------------------------|
--2---2---4--4---------------*|
----0---0-------0------------*|
--------------------0-4-2-1---|


Verse

|-----------------------|-------------------------|-----------------------|
|-----------------------|-------------------------|---------------------2-|
|---------------------7-|-------------------------|--0----0----0----0-----|
|--0----0----0----0-----|---0-0--0----0----0--1h2-|-----------------------|

                                                                            
|------------------2------||
|---------------------2-4-||
|--0----0----0---0--------||
|-------------------------||
comments powered by Disqus
Наверх