Аккорды Чёрный Кофе - Краски

Добавлено: @romashka
Дата добавления: 21 Августа 2019г.
Рейтинг:
0.0
Просмотров: 27
Транспонировать - +
  Em        D     C
Смыты все краски лета
               D       Em
Будто не было теплых дней 
           D      C
Солнце не дарит света
         Am               B7
Мир простился с мечтой своей

  Em      D     C
Все застилает вьюга
                D     Em
Лютый холод и мрак ночей
           D      C
И вольный ветер с юга 
 Am          B7
Дует еще слабей

Проигрыш:
     B7
e|---2---5-3-
B|--0---0----
G|-2---2-----
D|-----------
A|-----------
E|-----------

      Em      G        D
     Верю назначит встречу
             Am
     В бесконечном своем пути 
      Em         G       D
     Солнечный круг под вечер 
            Am
     В тишине на краю земли 
    C D           Em
     Назначит встречу 
    C D      Em
     Летний вечер
 
 Em     D      C
Мир покаянья ждавший 
   C        D        Em
О чем-то моля и скорбя 
   Em         D    C
Вспыхнул в ночи уставшей
        Am     B7
Блики пламени от огня

  Em       D       C
Снова в лучах рассвета
      C      D         Em
Проявляется небо в глазах 
  Em      D     C
Скоро вернется лето 
 Am             B7
Ветер развеет прах

Проигрыш:
     B7
e|---2---5-3-
B|--0---0----
G|-2---2-----
D|-----------
A|-----------
E|-----------

      Em      G        D
     Верю назначит встречу
             Am
     В бесконечном своем пути 
      Em         G       D
     Солнечный круг под вечер 
            Am
     В тишине на краю земли 
    C D           Em
     Назначит встречу 
    C D      Em
     Летний вечер
 
Соло:
   Am                      Em
e|---0-3-2-0---0-3-2-3-2-0---0-3-2-3--
B|--1---------1-------------0-------0-
G|-2---------2-------------0----------
D|------------------------------------
A|------------------------------------
E|------------------------------------

   Am                  B7           C
e|---0-3-2-0---0-7-5-3-5----2---5-3-0-
B|--1---------1-----------0---0-------
G|-2---------2-----------2-2-2-2------
D|------------------------------------
A|------------------------------------
E|------------------------------------

   D   Em    Am B7    Em
e|-2-0-2-0--------------
B|----3----0-1----------
G|-------------0--------
D|--------------4-2-0-2-
A|----------------------
E|----------------------

  Em        D    C
Мчится стрелою время
     C      D          Em
Отражается мир в зеркалах 
          D      C
И только лучик света 
 Am             B7
Может осилить мрак

  Em      D      C
Снова мечтой согретый
       C       D         Em
Превратится закат в рассвет 
         D      C
Скоро наполнит ветер 
     Am           B7
Паруса мировых побед
 
Проигрыш:
     B7
e|---2---5-3-
B|--0---0----
G|-2---2-----
D|-----------
A|-----------
E|-----------

      Em      G        D
     Верю назначит встречу
             Am
     В бесконечном своем пути 
      Em         G       D
     Солнечный круг под вечер 
            Am
     В тишине на краю земли 
    C D           Em
     Назначит встречу 
    C D      Em
     Летний вечер

Адаптация для классического строя
Оригинальная тональность – Fm
Оригинальный строй гитары - DROP C
comments powered by Disqus
Наверх