Аккорды Чёрный Кофе - Ночь

Добавлено: @romashka
Дата добавления: 15 Сентября 2013г.
Рейтинг:
0.0
Просмотров: 498
Транспонировать - +
Вступление:

    Dm               Dsus4           Dm6/H           Gm/B    A7
e||--------0h1-----|-3-----1-------|---------1-----|-3-----0-0-----0-|
H||-3----3-----3---|---3-------3---|-------3---3---|-----3-------2---|
G||----2---------2-|-----2-------2-|----2--------2-|---3-------0-----|
D||-0--------------|-0-------------|---------------|-----------------|
A||----------------|---------------|-2-------------|-1-------0-------|
E||----------------|---------------|---------------|-----------------|

  Dm               Dsus4            Dm6/H            A7
|--------0h1-----|-3-----1--0-----|---------1------|-6----5----3--||
|-3----3-----3---|---3--------3---|-------3---3----|----2----2----||
|----2---------2-|-----2--------2-|----2--------2--|--------------||
|-0--------------|-0--------------|----------------|--------------||
|----------------|----------------|-2--------------|-0------------||
|----------------|----------------|----------------|--------------||

Dm             Dsus4     Dm6/H          Gm/B
   Скоро ночь укроет мир       черной пеленой...
Dm              Dsus4        Dm            Dbdim
   Помнишь, как погас экран:    мы и зал пустой?
    A7                          Dm  Dsus4
   День прошедший – споры ни о чем.
A7                                Dm
   Сладкий сон, где мы с Тобой вдвоем.

Я так долго ждал Тебя, верил и мечтал...
Столько раз казалось мне – этот миг настал!
Но открывала полночь мне глаза:
Лунный взгляд пустой стрелой пронзал.

            B       A7           Dm
    Я разбивал в осколки ложь ночей,
               B      A7          Dm   
    Я шел к Тебе, к Тебе мечте своей!
    Gm       Em7-5       F     A7
    Верил и мечтал, Тебя я жда-ал.
 Dm                    C           Gm          A7
    Звездный свет – холодный свет нас не согревал...

Проигрыш (акцент на первой струне):

    C     F  C               A7
e||-0-1-3-1--0-|-0---0-1-3-|-5----|------||
H||-1-1-1-1--1-|-1---1-1-1-|-2----|------||
G||-0-0-0-2--0-|-0---0-0-0-|-2----|------||
D||-2-2-2-3--2-|-2---2-2-2-|------|------||
A||-3-3-3-3--3-|-3---3-3-3-|-0----|------||
E||-------1----|-----------|------|------||

Меркнет день, и все же ночь пишет свой портрет...
Глаз Твоих в кромешной тьме мне не виден Свет...
Я один, печаль свою храню,
Растворяет ночь Мечту мою...

 Припев

Проигрыш: Dm | A7 | Dm | A7 \\
          Dm | C  | F  | A7 / 2 раза

 Припев

Кода: C F C | C | A7
comments powered by Disqus
Наверх