Аккорды Clamavi De Profundis - Misty Mountains Cold (OST "The Hobbit")

Добавлено: @romashka
Дата добавления: 09 Ноября 2020г.
Рейтинг:
0.0
Просмотров: 31
Транспонировать - +
Далеко, к подножию Мглистых Гор.
D------------------------------|
A------------------------------|
F------------------------------|
C-----------0-2-0--------------|
G------0--3-------3-2-0--------|
D--0-3-------------------------|
 
Разлом пещер, что глубоко.
D------------------------------|
A------------------------------|
F------------------------------|
C-------------0----------------|
G----0-2-2--3---3-2-0----------|
D--0---------------------------|
 
Мы до конца, должны идти.
D------------------------------|
A------------------------------|
F------------------------------|
C----0---2------0--------------|
G--3---2------2---0-2----------|
D------------------------------|
 
Чтоб наше золото найти.
D------------------------------|
A------------------------------|
F------------------------------|
C------------------------------|
G----0-2-3----2h3p2----0-------|
D--0----------------3----------|
 
 
Шумели сосны, на верху.
D------------------------------|
A------------------------------|
F------------------------------|
C---------------0--------------|
G--------0-0--3---3-2---0------|
D--0-0-3--------------3--------|
 
Стонали ветры, в тёмный час.
D------------------------------|
A------------------------------|
F------------------------------|
C-----------------0------------|
G------0-2-2----3---3-2-0-2----|
D--0-3-------------------------|
 
Краснел огонь, и всё сжигал.
D------------------------------|
A------------------------------|
F------------------------------|
C----0---2-----0---------------|
G--3---2-----2---0-2-----------|
D------------------------------|
 
Перед ярким факелом пылал.
D------------------------------|
A------------------------------|
F------------------------------|
C------------------------------|
G----0-2-3-3---2---0-----------|
D--0-------------3-------------|
Наверх