Аккорды Cody Simpson - Livin Easy

Добавлено: @romashka
Дата добавления: 02 Августа 2022г.
Рейтинг:
0.0
Просмотров: 49
Транспонировать - +
G           Em         D         C          G*
---x--     --x--     --x--      --3--      ---x---
--12--     --8--     --7--      --5--      ---12--
--12--     --9--     --7--      --5--      ---12--
--12--     --9--     --7--      --5--      ---12--
--10--     --7--     --5--      --3--      ---9---
---x--     --x--     --x--      --x--      ---x---

      Em                 D                    G                    G
-------------------------------------------------------------------------------
-------8-8----8---------7-7----7-----------12-12----12----------12-12----12----
-------9-9----9---------7-7----7-----------12-12----12----------12-12----12----
-------9-9----9---------7-7----7-----------12-12----12----------12-12----12----
--7--7------7------5--5------5------10--10-------10------10--10-------10-------
-------------------------------------------------------------------------------


G  Em D  G
I'm usually a yes man, I always say yes man
G    Em        D   G
Walking through the streets, through the trees, in a big black winter coat, woah
G        Em      D    G
You'll find me at the bus stop or sitting at the coffee shop
G   Em  D         G
Sipping on a café au lait, or something that I can't pronounce, yeah
G       Em   D  G
   'Cause you know I'm never in a rush
G      Em  D G
   What I got is more than enough, oh


                C   D    G
I like my living easy, I don't need much of anything
                C   D    G
That real good feeling, the kind that makes you wanna sing
         C  D   G G* Em   
I don't mind being on my own, but I would love it if you came along
                 C   D G         C   D        G
So we can live it easy, living easy, that real good feeling, living easy

I never say no man, I'm just another no man
Walking through the desert just for pleasure, never looking for a treasure chest
Where we gonna go man? I tell you I don't know man
But it you're looking for adventure, you can join me on my endless quest
'Cause you know I'm never in a rush
I like my living easy, I don't need much of anything
That real good feeling, the kind that makes you wanna sing
I don't mind being on my own, but I would love it if you came along
So we can live it easy, living easy, that real good feeling, living easy
I like a little mahi-mahi on my taco on the weekend
I can hear them birds singing, I've been sleeping on the speakers
When I'm walking down the street in barefeet and concrete
Never thinking, just leaning on the truth behind a meaning
So easy, I don't need much of anything
That real good feeling, the kind that makes you wanna sing
I don't mind being on my own, but I would love it if you came along
So we can live it easy, living easy, that real good feeling, living easy

Бой в припеве 
C    D
↓ ↓ ↑↑↓ ↓ ↓↑

G
↓ ↓ ↑↑↓ ↓ ↓↑

Когда идет последовательность G G* Em играем просто вниз один раз на каждый из этих аккордов. На последнем G в припеве можно просто 5 раз вниз сыграть.
Наверх