Аккорды «Creed»

Creed
Creed родом из Tallahassee, США. Их можно назвать невероятным феноменом с громадной толпой неистовых и преданных поклонников, которые штурмом брали офисы радиостанций, помогая своим кумирам занимать первые места где бы то ни было. Благодаря этому четыре песни из дебютного альбома группы поочередно занимали первое место в чарте. В 1998 Billboard удостоил их звания Лучшего Рок-Исполнителя года, еще в этом же году в многочисленных иных чартах тяжелой музыки их дебютный альбом торжественно занимал позицию… Читать полностью... Creed родом из Tallahassee, США. Их можно назвать невероятным феноменом с громадной толпой неистовых и преданных поклонников, которые штурмом брали офисы радиостанций, помогая своим кумирам занимать первые места где бы то ни было. Благодаря этому четыре песни из дебютного альбома группы поочередно занимали первое место в чарте. В 1998 Billboard удостоил их звания Лучшего Рок-Исполнителя года, еще в этом же году в многочисленных иных чартах тяжелой музыки их дебютный альбом торжественно занимал позицию №1. Дебютный альбом Creed "My Own Prison" еще в феврале 1998 года стал трижды платиновым. Релиз второго альбома "Human Clay" состоялся 28 сентября 1999 года. Этого события поклонники повсеместно ждали с сильнейшим нетерпением. Альбом был записан совместно с Джоном Курзуегом (John Kurzweg), который также продюсировал "My Own Prison". На "Human Clay" солист и автор текстов Скотт Стэпп (Scott Stapp) говорит о том, как ответственность, выбор и действия влияют на людей. Их первый сингл "Higher" - это видение лучшего мира во время сна. В других песнях, например, в "Never Die", рассказывается о страхах, связанных со старением и расставанием с молодостью. Главная тема "Faceless Mann" - преданность, а в песне "Beautiful", наоборот, темой является измена. Creed привлекают людей, не привыкших делать вид, что у них есть ответы на все вопросы. Если говорить об их самой чувственной песне, "With Arms Wide Open", то можно сделать вывод, что это глубоко личная вещь, которую Скотт написал, готовясь стать отцом. В 17 лет он ушел из дома, не повинуясь своему строго религиозному воспитанию и стал слушать рок-музыку, которая была запрещена в его родительском доме. И вот именно в это время он буквально помешался на хард-роке и таких исполнителях, как Def Leppard, и чуть позже стал огромным фаном The Doors. Когда Stapp узнал, что Джим Моррисон (Jim Morrison) очень непродолжительное время жил в его родном городе, Талахассе (Tallahassee), он быстренько собрал свои вещи и вернулся туда, где случайно встретился с одним своим одноклассником Марком Тремонти (Mark Tremonti), который забавлялся тем, что писал песни. Так появилась его первая и единственная группа - Creed. К ним присоединился басист Брайан Маршалл (Brian Marshall) и барабанщик Скотт Филлипс (Scott Phillips). Вместе они начали играть музыку, огромное влияние на которую оказали Metallica, TOOL, Black Flag, Led Zeppelin, The Doors и даже некоторые классические R&B исполнители. Особой славой пользовались живые выступления группы, на которые было просто нереально достать билеты во всех местах, где выступали Creed. В течение последних двух лет ребята отыграли больше, чем для миллиона человек во всём мире. "Каждый наш концерт очень напряженный, потому что мы играем от сердца", - говорит Скотт Стэпп. Когда в одном интервью на радио его спросили, каков же секрет их успеха, он ответил кратко: "Искренность". На Woodstock 1999 года Creed сделали для своих фанатов незабываемый подарок: они пригласили гитариста The Doors - Робби Кригенра (Robbie Krieger) - на свое живое выступление на главной сцене. Когда Стэпп представил Кригенра, огромная 200000-ная толпа стала выкрикивать слова песен The Doors "Roadhouse Blues" и "Riders On The Storm" (Кригер играет гитарную партию в "What's This Life For" - наиболее философской песне с первого альбома Creed). Последний студийный альбом Creed "Weathered" вышел в декабре 2001 года, дебютировав на первой строчке чарта Billboard 200 и разошелся только в США тиражом в 6,2 миллиона дисков. Общий тираж трех альбомов Creed к концу 2004 года уже вплотную подобрался к отметке в 30 миллионов копий. Музыканты Creed завоевывали награды Billboard Music Awards в 1998, 1999 и 2000 годах в категории "лучшие рок-исполнители года". 4 июня 2004 года после восьми лет совместной работы участники группы объявили о распаде Creed. После распада группы трое участников Creed, исключая вокалиста Скотта Стаппа, объединились под крылом нового проекта. Свежеиспеченная команда друзей-единомышленников получила название Alter Bridge. Дебютный альбом группы вышел 10 августа 2004-го. А экс-вокалист Creed Scott Stapp в 2005 году выпустил сольный альбом "The Great Divide", на написание песен для которого его вдохновил фильм Мела Гибсона "Страсти Христовы" (The Passion of the Christ). Позже вышел сборник песен "Passion of the Christ: Songs", в который вошли песни, написанные различными исполнителями под влиянием этого фильма. Первый сингл "Relearn Love" с сольника Стаппа так же попал на этот сборник. Спустя 6 лет, 27 апреля 2009 года, на официальном сайте группы появилась информация о возрождении Creed. 19 августа вышел сингл «Overcome», а 27 октября — новый альбом, получивший название «Full Circle». На концертах в составе Creed появляется пятый участник — гитарист Эрик Фредман. Состав: Scott Stapp - вокал. Дата рождения: 08.08.73. Родом из: Orlando (Florida). Музыкальный опыт: 17 лет пел в школьном хоре. Влияния: U2, Led Zeppelin, The Doors. Любимые группы: Faith No More, TOOL, Kings X. Скотт однажды сказал: "Рок-н-ролл - это моя религия. Эта музыка всю жизнь исходила из меня, и это единственное, что я когда-либо хотел". После ссоры с родителями из-за их строгого религиозного воспитания и ухода из дома в 17 лет он накатал эти слова на журнале, как весточку для родителей, и однажды эти же слова стали песней "My Own Prison". Mark Tremonti - гитара. Дата рождения: 18.04.75. Родом из: Detroit (Michigan). Использует: Gibson LesPaul pain-top classic, Gibson LesPaul lyte-neck Standard и Kahler Pro Tremelo guitars. Влияние: Blackflag, Bad Brains, Metallica, Slayer, Anthrax, SOD, Soundgarden, Celtic Frost. Любимые группы: Soundgarden, Metallica, Blackflag. Scott Phillips - ударные. Дата рождения: 22.02.73. Родом из: Madison (Florida). Использует: Premier Drums, Zildjian Cymbals, DW&Giblartar Hardware и Remo Heads. Влияние: Soundgarden, Rush, Livin Color, TOOL. Любимые группы: Living Colour, TOOL, Pink Floyd, Led Zeppelin. Brian Marshall - бас-гитара. Дата рождения: 24.04.73. Родом из: Fort WaltonBeach (Florida). Использует: Sadowsky NYC Basses и Mesa/Boogie Amps. Влияние: Led Zeppelin, Rush. Любимая группа: Faith No More. Скрыть...
Популярные аккорды Creed:
алфавиту | просмотрам | случайно
  • Verse:
    
    G-------------------------------------------------
    D-------------------------------------------------
    A-/55-5-5-0-0/10-/55-5-5-00/122-2---------------
    E-----------------------------------3-------------
    
    G-------------------------------------------------
    D-------------------------------------------------
    A--55-5-5-0-0-02--2----55-5-5-00/122-2-----------
    E-------------------3-------------------3---------
    
    G-------------------------------------------------
    D-------------------------------------------------
    A-55-5-5-00/122/10-10-12-10-55-0012/14-14-10---
    E-------------------------------------------------
    
    Chorus:
    
    G--------------------------------
    D--------------------------------
    A-55-5-55-------22-2-2-----------…
  • **Capo on 1st fret**
    
    Intro (w/distortion)
    
    E----------------------------------------------------------------12----|
    B-------------------------------------------------------------------14-|
    G---6b7b6---6-6b7b6---7--------------6b7b6---6-6b7b6---7---------------|
    D------------------------------------------------------7---------------|
    A-0-------0---------0--------------0-------0---------0-----------------|
    E----------------------------------------------------------------------|…
  • Verse:
    G------------------------------------------------------------------------
    D------------------------------------------------------------------------
    A-0-00-0-0-5--4---------------2--0---------------------------------------
    D---------------------5-55-5-5--------0-00-0-0h5--4---0-00-0-0h5--4------
    
    Chorus:
    G-----------------------------------------------------------------------------------
    D-----------------------------------------------------------------------------------
    A-----------------------------------------------------------------------------------
    D-0`--------------------------------------------------------------------------------
    
    G---------------------------------------------------------------------------
    D---------------------------------------------------------------------------
    A--3333333333333------1111--------------------------------------------------
    D---------------0---------0--------3-3-0-3/5-55-0-00-555-0-00-3/5-(55)------
    
    Ending:
    G------------------------------------------------------------------------------
    D------------------------------------------------------------------------------
    A-0-00-0-0-5--4---------------2--0---------------------------------------------
    D---------------------5-55-5-5--------0-00-0-0h5--4----------------------------
    
    Order:
    Verse:…
  • Intro/1st Verse
    G|------------------------0-0-0-0-2-|
    D|----------------------------------|
    A|3-3-3-3-2-2-2-2-0-0-0-0-----------|
    E|----------------------------------|
    
    1st Chorus
    G|------------------------------------|…
  • Drop-D tuning...Lo to Hi(DADG)
    
    Intro
    MM = 78
    
        w   +w   +w   +H+e s s   E s e s s s s e s s s s  
    +-----+----+----+----------+-------------------------+
    |4:-R-|----|----|----------|-------------------------|
    |4:---|----|----|----------|-----5-5-5-5-5-----5-7-5-|
    +-----+----+----+------7-7-+-0-0-----------0-0-------+…
  • Tuning:G,D,A,E
    is in the standard tuning but sound pretty well!
    
    
    THIS IS THE RIFFS, THE PEO
    Hello my friend................
    G-----------------------------------------------------------
    D-----------------------------------------------------------
    A-5-5-5-4-5-5-5-5-5-5-5-5-5-4-5-5-5-5-2-2-------------------
    E--------------------------------------2--2--3-3-3----------
    
    G-----------------------------------------------------------
    D-----------------------------------------------------------
    A-5-5-5-4-5-5-5-5-5-5-5-5-5-4-5-5-5-5-2-2-------------------
    E--------------------------------------2--2--3-3-3----------
    
    IM…
  • Standard Tuning (EADGBE)
    
    VERSE
      G    D         Dsus4   Bsus2      Csus2
    e-3----------2-2h3p2-----------2--2-------3-------|
    b-3-3-3----3---------3---------2--2---------3-----|
    g-0-0----2-------------0-----4----------5-----5---|5x
    d-0-0--0-------------------4----------5-----------|
    a-2-2--------------------2----------3-----------0-|
    e-3-3---------------------------------------------|…
  • The tuning is Drop D:    D A D G B E (low to hight)
    
    Intro/Verse: Clean
    
    Part A: 
    E-|----------------------------------------------------------|
    B-|----------------------------------------------------------| 
    G-|----------------------------------------------------------|
    D-|----------------------------------------------------0---0-|
    A-|------6-6-5-5-----3-5-5-5-----8-8-5-5-----3-5-5-5---------|
    D-|--0-0---------0-0---------0-0---------0-0---------3---1---|
    
    Part…
  • Tuning: Drop-D(D-A-D-G-B-E)
    
    Intro(slight distortion)
    
    E|----------------------------------------------------|
    B|--------3-------------------------------------------|
    G|--------2----------0---------5--5-------------------|
    D|-----0--0------0h3---3-------3--3--3----------------|
    A|-----0--0--0h1---------0--3--3--3--3--3h5-3---------|
    D|--0--0--------------------3--3--------------5-3-----|
    
    Verse(slight…
  • Open
    E|-------------------------------------------
    A|-5-----5--8-5-3--3-5-6--6-8-6-5--------5---
    D|---8-7--------------------------7-5-8-7----
    G|-------------------------------------------
    
    E|-------------------------------------------
    A|-5-----5--8-5-3--3-5-6--6-8-6-5-----------5
    D|---8-7-----------------------------------5-
    G|---------------------------------5-7777-5--
    
    Verse
    E|-------------------------------------------
    A|-5-----5--8-5-3--3-5-6--6-8-6-5--------5---
    D|---8-7--------------------------7-5-8-7----
    G|-------------------------------------------
    
    E|-------------------------------------------
    A|-5-----5--8-5-3--3-5-6--6-8-6-5------------
    D|---8-7-------------------------------------
    G|-------------------------------------------
    
    E|-------------------------------------------
    A|-5-----5--8-5-3--3-5-6--6-8-6-5------------
    D|---8-7-------------------------------------
    G|-------------------------------------------
    
    Chorus…
  • Intro and Verse
    e----------------------------------------------------
    B----------------------------------------------------
    G---7-6-6---------7-6-9-7------7h9-7-----------------
    D---------9-9-7-7---------7h9-7----------------------…
  • Tuning: Drop-D(D-A-D-G-B-E)
    
    Intro with delay 
    
    E|--14--14--15--17--17--18--17---20--18--17--15--17--15--|
    B|-------------------------------------------------------|
    G|-------------------------------------------------------|
    D|-------------------------------------------------------|
    A|-------------------------------------------------------|
    D|-------------------------------------------------------|
    
    E|-------17--15--14--14b--15--14--------15---------------|
    B|--11---------------------------------------------------|
    G|-------------------------------------------------------|
    D|-------------------------------------------------------|
    A|-------------------------------------------------------|
    D|-------------------------------------------------------|
    
    VERSE
    
    E|15-14--14--15--17--17--18--17---20--18--17--15--17--15-|
    B|-------------------------------------------------------|
    G|-------------------------------------------------------|
    D|-------------------------------------------------------|
    A|-------------------------------------------------------|
    D|-------------------------------------------------------|
    
    E|-----14--14--15--17--17--18--17---20--18--17--15--17--15-|
    B|11-------------------------------------------------------|
    G|---------------------------------------------------------|
    D|---------------------------------------------------------|
    A|---------------------------------------------------------|
    D|---------------------------------------------------------|
    
    E|--14--14--15--17--17--18--17---20--18--17--15--17--15--|
    B|-------------------------------------------------------|
    G|-------------------------------------------------------|
    D|-------------------------------------------------------|
    A|-------------------------------------------------------|
    D|-------------------------------------------------------|
    
    E|-------17--15--14--14b--15--14--------15---14---15-----|
    B|--11---------------------------------------------------|
    G|-------------------------------------------------------|
    D|-------------------------------------------------------|
    A|-------------------------------------------------------|
    D|-------------------------------------------------------|
    
    
    
    Chorus(clean)
    
    E|-------------------------------------------------------|
    B|-------------------------------------------------------|
    G|--11-11-11-11-11-11-12-12-12-12/14-14-14-14-14-14------|…
  • Intro
    G|----------------------------|
    D|----------------------4-----|
    A|--2---------------------5---|
    D|--------3---3b--0---------0-|
    Play 6 times and on the 5th time play it like this...
    
    G|------------------------------|
    D|------------------------4-----|
    A|----2---------------------5---|
    D|-5-------3---3b--0---------0-|
    
    Verse
    G|---------------------------------------|
    D|---------------------------------------|
    A|-2-2-2-2-2-----------------------------|
    D|------------3-3-3-3-3-3-3-3---00---00--|
    Play…
  • Drop D:
    D A D G B E
    
    Intro: Clean w/ wah used as envelope filter
    
    e-----------------------------------------------------------------
    b-----------------------------------------------------------------
    g-----------------------------------------------------------------
    d-----------------------------------------------------------------
    a-----------------------------------------------------------------
    d-0-0-0-0-0-0-0-0-0-0-0-0-0-0-0-0-0-0-0-0-0-0-0-0-0-0-0-0-0-0-0-0-
    
    w/…
  • --------------------------------------12^-------------------------15----14---
    --------------------------------------ph------------------------------15------
    -----------------------------11-12--------------------------------------------
    --------------------------14-------14-----------------------------------------
    -12b-12b12p10----10------------------------------10-12b12p10----10------------
    --------------12---------------------------10-12-------------12---------------…
  • Drop D Tunning:
    
      Intro:
    w/fingers
    Let ring throughout
    e|---------------5--------3---------1-----------------1--|
    B|--------5---6----6---5-----5---3-----3-----------3-----|
    G|-----7----------------------------------1-----1--------|
    D|-/7---------0------------------------------------------|
    A|---------------------0---------1-----------1-----------|
    D|-------------------------------------------------------|
    
    
    e|----0-----------------0------0-------------------------|
    B|-3-----3-----------3------2-----2---------------5------|
    G|----------0-----0------------------0---------7---------|
    D|-----------------------------------------/7------------|
    A|-0-----------0------------0-----------0----------------|
    D|-------------------------------------------------------|
    
    
    
    e|----5------------3------------1-----------------1------|
    B|-6-----6------5-----5------3-----3-----------3---------|
    G|------------------------------------1-----1------------|
    D|-0-----------------------------------------------------|
    A|----------0---0--------0---1-----------1---------------|
    D|-------------------------------------------------------|
    
    
    
    e|----0------------------0------0-----------------0------|
    B|-3-----3------------3------2-----2-----------2---------|
    G|----------0-----0-------------------0-----0------------|
    D|-------------------------------------------------------|
    A|-0-----------0-------------0-----------0---------------|
    D|-------------------------------------------------------|
    
    
    
    e|-------------------------------------------------------|
    B|-3-------------3--------3--------2h3-----5p3p2p0h2-----|
    G|-------------------------------------------------------|
    D|-------------------------------------------------------|
    A|-1-------------1--------0----------------0-------------|
    D|-------------------------------------------------------|…
  • Drop-D Tuning
    
    Intro: (Clean Electric)
    Play 3 times
    E-|-----------------------------------------|
    B-|--10h11--11h13--13-13--------------------|
    G-|-----------------------11h12--12h14--14--|
    D-|---0------0------0-----------------------|
    A-|------------------------0------0------0--|
    D-|-----------------------------------------|
    
    This…
  • Tuning: Drop-D(D-A-D-G-B-E)
    
    Intro(distortion)
    
    E|------------------------------------------------------------|
    B|------------------------------------------------------------|
    G|------------------------------------------------------------|
    D|----------------------------------3-----------------------3-|
    A|----------------------3-----0-3-5-------------3-----0-3-5---|
    D|--x-x-x-x-x--0--0-3-5----0-----------0--0-3-5----0----------|
    
    E|------------------------------------------------------------|
    B|------------------------------------------------------------|
    G|------------------------------------------------------------|
    D|-----------------------3-----------0--5b-5b-5b-5p3---3------|
    A|-----------3-----0-3-5-----------------------------5---5-3--|
    D|--0--0-3-5----0-----------0--0-3-5--------------------------|
    
    Verse(distortion)
    
    E|------------------------------------------------------------|
    B|------------------------------------------------------------|
    G|------------------------------------------------------------|
    D|-----------------------3-----------------------3------------|
    A|-----------3-----0-3-5-------------3-----0-3-5--------------|
    D|--0--0-3-5----0-----------0--0-3-5----0---------------------|…
  • Drop D tuning
    
    1=E 4=D
    2=B 5=A
    3=G 6=D
    
    Guitar Notation 
    ^=bend
    /=slide
    
    Intro (clean)                 play 5 times
    
    E----------------------------------------------------------
    B----------------------------------------------------------
    G-----8^(8)-----3^(3)-----7^(7)------2^(2)-----------------
    D----------------------------------------------------------
    A----------------------------------------------------------
    D-----6---------1---------5----------0---------------------
    
    Verse…
  • Tuning:
    D A D A D D
    
    Intro:
    
    gtr. 2
    
    d------------------------------------------------------------
    d-3p0--------------0---------0---------------2p0-----0-----0-
    a-----0-----0--------0---------------------------------3-----
    d-------0--------------0-------------------------------------
    a-3-------3---2----------------------------------------------
    d------------------------3/5---------------------------------
    
    gtr.…
  • Verse – (listen to the song for strumming pattern)
    “At times life is wicked and I just can’t see the light”
    -3--------------------------3------------------0--0-----0-0--|
    -3--------------------------3------------------1--0-----1-0--|
    -0--------------------------0------------------0--0-----0-0--|
    -0--------------------------0------------------2--2-----2-2--|
    -2--------------------------0------------------3--3-----3-3--|
    -3--------------------------2--------------------------------|
    
    
    Pre-Chorus…
  • Tuning: D A D G B E
    
    INTRO
    |---------------------------------|
    |---------------------------------|
    |---------------------------------|
    |-0-0-0-7-0-6-----0-0-0-7-0-6-0-4-|
    |---------------------------------|
    |---------------------------------|
    
    |---------------------------------|
    |---------------------------------|
    |---------------------------------|
    |-0-0-0-7-0-6-0-4-0-5-0-2-0-3-2-1-|
    |---------------------------------|
    |---------------------------------|
    palm…
  • Tuning: E A D G B E
    
    
    INTRO/VERSE
    |----------------------------------(0-0-0-0)--------|
    |----------------------------------(0-0-0-0)--------|
    |-----------------------------------9-9-9-9(8-8-8-8)|
    |---------------------11-11-9-11-14-9-9-9-9-9-9-9-9-|
    |-7-7-7-6-6-6-6h7p64-0--0--0-0--0--7-7-7-7-9-9-9-9-|
    |-9-9-9-9-9-9-----------------------0-0-0-0-7-7-7-7-|…
  • Dropped D tuning (DADGBE)
    
    INTRO - go from the last 3 notes right back to the open D
    string at the beginning of the riff immediately at the same
    tempo to get the right sound - IMPORTANT!
    
    
    e-----------------------0-------|…
  • Tuning: Drop-D
    
    
    INTRO:
    Repeat 2x                                          Repeat 2x
    --------------------------------------------------|------------------
    --------------------------------------------------|------------------
    --------------------------------------------------|------------------
    --------------------------------------------------|-2h3p2p0---2h3p2p0
    --------------------------------------------------|-2h3p2p0---2h3p2p0
    -2h3p2p0---2h3p2p0---2h3p2p0-2h3p2p0--2h3p2p0-2b--|-2h3p2p0---2h3p2p0…
  • Drop-D Tuning
    
    Intro: (Distortion)
    E-|-----------------------------------------------------------|
    B-|--------------------------------------3--3-----3--3/43-0--|
    G-|----------5--------3------3-----------2--2-----2--2/32-0--|
    D-|--3-3-3-3-5--0-1-1-3--1-1-3-0--0-0--0----0--0--------------|
    A-|--3-3-3-3-3--0-1-1-1--1-1-1-0--0-0--0----0--0--------------|
    D-|--3-3-3-3----0-1-1----1-1---0--0-0--0----0--0--------------|
    
    E-|-----------------------------------------------------------|
    B-|--------------------------------------3--3-----3--3/43-0--|
    G-|----------5--------3------3-----------2--2-----2--2/32-0--|
    D-|--3-3-3-3-5--0-1-1-3--1-1-3-0--0-0--0----0--0--------------|
    A-|--3-3-3-3-3--0-1-1-1--1-1-1-0--0-0--0----0--0--------------|
    D-|--3-3-3-3----0-1-1----1-1---0--0-0--0----0--0--------------|
    
    E-|---------------------------------------------------------------|
    B-|---------------------------------------------------------------|
    G-|----------5--------3------3----10-----10-12-12h13p12----10-10--|
    D-|--3-3-3-3-5--0-1-1-3--1-1-3-0--10--12-10-12-12h13p12-12-10-10--|
    A-|--3-3-3-3-3--0-1-1-1--1-1-1-0------12----------------12--------|
    D-|--3-3-3-3----0-1-1----1-1---0----------------------------------|
    
    E-|-------------------------------|
    B-|-------------------------------|
    G-|----------5--------3------3----|
    D-|--3-3-3-3-5--0-1-1-3--1-1-3-0--|
    A-|--3-3-3-3-3--0-1-1-1--1-1-1-0--|
    D-|--3-3-3-3----0-1-1----1-1---0--|
    End…
  • Drop D (D,A,D,G,B,E)
    
    INTRO
    1---------------------------------------------------------------------------
    2-----6-------6----6---5------5-h6----5-h-6---5h6----3----------------------
    3-----5h7-----5----5---5------5-------5-------5------3----------------------
    4---0------0-----0---0------0-------0-------0------0------------------------
    5---------------------------------------------------------------------------
    6---------------------------------------------------------------------------
    
    1---------------------------------------------------------------------------
    2----3h5---3h5----3-h5----3-2--2h3-----3------------------------------------
    3----3-----3------3------------2-------2------------------------------------
    4--0------0------0-----0------------0---------------------------------------
    5---------------------------------------------------------------------------
    6---------------------------------------------------------------------------
    
    VERSE…
  • Intro: (Clean)
    E-|------------------------------------------------------------------|
    B-|------------------------------------------------------------------|
    G-|---------------------------------------------------2--------------|
    D-|-----------------------------------------------------0------------|
    A-|--3--5-5-3-5-5--3-5-5-5b-5-5--3-5-5-3-5-5-3---0--------1-1b3-1-3--|
    D-|--0--0-0-0-0-0--0-0-0-0--0-0--0-0-0-0-0-0-0-0---0--------------0--|
    
    Play…
  • Tune to E flat
    
    
    (Clean Tone)
    Let Ring........................
    -----0---------------0----------|
    -0h2-----0-------0h2-----0------|
    -------3---------------3--------|
    -----------2~~~------------2~~--|
    --------------------------------|
    --------------------------------|
    
    Riff…
  • Drop-D Tuning
    
    Intro/Verse: (Clean)
    E-|--2--2------------------------------------------------------/6--6-6----------|
    B-|--2--2-------------------------------6----------------------/6--6-6----------|
    G-|--4--4--4-4--7--7-7-7-7--7-7-7-5-7---5---7---5------5-5-5--5/8--8-8--7--7-7--|
    D-|--4--4--4-4--5--5-5-5-0--0-0-0-0-0-0-0-0-0-0-0--0-2-3-3-3--3/8--8-8--0--0-0--|
    A-|--2--2--2-2--5--5-5-5-0--0-0-0-0---0---0---0----0-2-3-3-3--3/6--6-6--0--0-0--|
    D-|-------------5--5-5-5-0--0-0-0-0---0---0---0----0-2-3-3-3--3---------0--0-0--|
    
    E-|-----------------------2--2----------------------------------|
    B-|----------------6------2--2----------------------------------|
    G-|------5-----5-7-5-7-7--4--4--7--7-7-7-7--7-7-7-5-7-7-7--5-5--|
    D-|--5-7-0-7---0-0-0-0-0--4--4--5--5-5-5-0--0-0-0-0-0-0-0--0-0--|
    A-|--0-0---0-0-0-----0-0--2--2--5--5-5-5-0--0-0-0-0-0-0-0--0-0--|
    D-|--0-0---0-0-0-----0-0--------5--5-5-5-0--0-0-0-0-0-0-0--0-0--|
    
    E-|-----------------6--6-6------------------------------|
    B-|-----------------6--6-6---------------6--------------|
    G-|--------5-5-5--5/8--8-8--7--7-7-5-7---5-----5-7-7-7--|
    D-|--0-2-3-3-3-3--3/8--8-8--0--0-0-0-0-0-0-0-0-0-0-0-0--|
    A-|--0-2-3-3-3-3--3-6--6-6--0--0-0-0-0-0---0-0-0-0-0-0--|
    D-|--0-2-3-3-3-3--3---------0--0-0-0-0-0---0-0-0-0-0-0--|
    
    E-|--2--2------------------------------------------------/6--6-6----------|
    B-|--2--2------------------------------------------------/6--6-6----------|
    G-|--4--4--7--7-7-7-7--7-7-7-5-7-7-7--5-5--------5-5-5--5/8--8-8--7--7-7--|
    D-|--4--4--5--5-5-5-0--0-0-0-0-0-0-0--0-0--0-2-3-3-3-3--3/8--8-8--0--0-0--|
    A-|--2--2--5--5-5-5-0--0-0-0-0-0-0-0--0-0--0-2-3-3-3-3--3/6--6-6--0--0-0--|
    D-|--------5--5-5-5-0--0-0-0-0-0-0-0--0-0--0-2-3-3-3-3--3---------0--0-0--|
    
    E-|-----------------------2--2----------------------------------|
    B-|----------------6------2--2----------------------------------|
    G-|------5-----5-7-5-7-7--4--4--7--7-7-7-7--7-7-7-5-7-7-7--5-5--|
    D-|--5-7-0-7---0-0-0-0-0--4--4--5--5-5-5-0--0-0-0-0-0-0-0--0-0--|
    A-|--0-0---0-0-0-----0-0--2--2--5--5-5-5-0--0-0-0-0-0-0-0--0-0--|
    D-|--0-0---0-0-0-----0-0--------5--5-5-5-0--0-0-0-0-0-0-0--0-0--|
    
    E-|-----------------6--6-6------------------------------|
    B-|-----------------6--6-6---------------6--------------|
    G-|--------5-5-5--5/8--8-8--7--7-7-5-7---5-----5-7-7-7--|
    D-|--0-2-3-3-3-3--3/8--8-8--0--0-0-0-0-0-0-0-0-0-0-0-0--|
    A-|--0-2-3-3-3-3--3-6--6-6--0--0-0-0-0-0---0-0-0-0-0-0--|
    D-|--0-2-3-3-3-3--3---------0--0-0-0-0-0---0-0-0-0-0-0--|
    
    Pre-Chorus:
    E-|---------------/6--6-6--------------------------|
    B-|---------------/6--6-6--------------------------|
    G-|---------------/8--8-8--7--7-7-7-5-7-7-7-7-5-5--|
    D-|--0-2-3-3-3-3-3/6--6-6--0--0-0-0-0-0-0-0-0-0-0--|
    A-|--0-2-3-3-3-3-3/6--6-6--0--0-0-0-0-0-0-0-0-0-0--|
    D-|--0-2-3-3-3-3-3---------0--0-0-0-0-0-0-0-0-0-0--|
    
    Chorus:…
  • Tuning- DADGBe
    
     Intro
    e----------------------------------------------------------
    B------------------------13--------------------------------
    G------5-5-4--4-4-3------12--10-10-12p10----10-10----10-10-
    D--0-0-5-5-4--4-4-3---0------------------12-------12-------
    A--0-0-3-3-2--2-2-1---0------------------------------------
    D--0-0----------------0------------------------------------…
  • Tuning: Drop-D(D-A-D-G-B-E)
    
    Intro/Verse(clean)
    
    E|--------------------------------------------------------|
    B|--------------------------------------------------------|
    G|--------------------------------------------------------|
    D|------3-----3h5-----2-----3------3-----3h5-----2-----3--|
    A|----------------------------5---------------------------|
    D|--0-0---0-0-----0-0---0-0------0---0-0-----0-0---0-0----|
    
    Pre-Chorus…
  • Tuning- EADBGe
    
    Intro
    e--------------------------------------
    B----------------------3-------5-------
    G----------------------5-------7-------
    D--2--2--------------5-5-----7-7-------
    A--2--2----------0-3---3--/5---5-------
    E--0--0--0-0-2-3-----------------------
    
    Intro…
  • Tuning- DADGBe
    
    
     Intro  /  Verse I  5x
    e---------|-----------------------------------------------|
    B---------|-----------------------------------------------|
    G---------|--7----/10---/9---10-/9-----7----/10----9------|
    D---------|--4----/7----/6---7--/6-----4----/7-------6----|
    A-(5-5-5)-|--5----/8----/7---8--/7-----5----/8---------7--|
    D-(0-0-0)-|--0----/0----/0---0--/0-----0----/0------------|…
  • Tuning- DADGBe 
     
     
     
    e----------|------------------------------------------------- 
    B----------|------------------------------------------------- 
    G----------|------------------------------------------------- 
    D----------|------------0h6---0-----0--0---------0h6---0-----…
  • Tuning:DADGBE
    
    figure:1.1(Intro)     
    E|-------------------|
    B|-------------------|
    G|-------------------| 
    D|-------------------|
    A|--0------0-0-------|
    D|--0-2.7*-0-0-2.7*--|
       pm     pm..|…
  • Tuning: Drop-D(D-A-D-G-B-E)
    
    Intro/Verse(clean)
    
    E|-------------------------0-----------------------------|
    B|---------------------------0---------------------------|
    G|-----------------0-----------0-------------------------|
    D|-----4-----5-------5-----------5-----7-----9-----------|
    A|-------2-----2-------2-----------------5-----5---------|
    D|--2------2-----2-------2----------5------5-----5-------|
    
    E|----------0--------------------------------------------|
    B|------------0------------------------------------------|
    G|--0-----------0----------------------------------------|
    D|----9-----------9----4-----5-----7-----5-----4h5p4-----|
    A|------5----------------0-----0-----0-----0-------------|
    D|--------5----------0-----0-----0-----0-----0-----0-----|
    
    E|-------------------------------------------------------|
    B|-------------------------------------------------------|
    G|--------------12-----11----9h11p9---------------------|
    D|--4-----5---5/---0-------0-----------------------------|
    A|----0-----0--------------------------------------------|
    D|------0-----0------0-----------------------------------|
    
    Chorus(distortion)
    
    E|-------------------------------------------------------|
    B|-------------------------------------------------------|
    G|--5-5-5-5-5-5-5-5-----7-7-7-7-7-7-7-----7--7---7---7---|
    D|--5-5-5-5-5-5-5-5-----7-7-7-7-7-7-7-----4----4---5-----|
    A|--3-3-3-3-3-3-3-3-0-0-5-5-5-5-5-5-5-0-0-0----0---------|
    D|------------------0-0-5-5-5-5-5-5-5-0-0-0----0---------|…
  • Tunning: Drop D: DADGBE
    
    Intro  ( Play 2x )
    E--2---------2---3--3-3-3-------------------------------|
    B----2-------2---3--3-3-3-------------------------------|
    G------4-----4-/-4--4-4-4-7---7-7-5-7-10-7-5-7--------5-|
    D--------4---4-/-5--5-5-5-7---7-7-5-7-10-7-5-7--0-2-3-5-|
    A----------2-2---5--5-5-5-7---7-7-5-7-10-7-5-7--0-2-3-5-|
    D----------------x--x-x-x-----------------------0-2-3---|
    
    
    E--------------------------------------------------|
    B--------------------------------------------------|
    G-5-5---8-8--8-8-8-7-7-7--0-2-5-2--5-7-10-7-0------|
    D-5-5-/-8-8--8-8-8-7-7-7--0-2-5-2--5-7-10-7-0------|
    A-5-5---8-8--8-8-8-7-7-7--0-2-5-2--5-7-10-7-0------|
    D--------------------------------------------------|
    
    
    E---2-2---3--3-3-3-------------------|
    B---2-2---3--3-3-3-------------------|
    G---4-4-/-4--4-4-4-7---7-7-5-7-7-7-5-|
    D---4-4-/-5--5-5-5-7---7-7-5-7-7-7-5-|
    A---2-2---5--5-5-5-7---7-7-5-7-7-7-5-|
    D---------x--x-x-x-------------------|
    
    
    E--------------------------------------------------|
    B--------------------------------------------------|
    G-7--------5-5-5---8-8--8-8-8-7-7-5-7-10-7-5-7-----|
    D-7--0-2-3-5-5-5-/-8-8--8-8-8-7-7-5-7-10-7-5-7-----|
    A-7--0-2-3-5-5-5---8-8--8-8-8-7-7-5-7-10-7-5-7-----|
    D----0-2-3-----------------------------------------|
    
    2nd…
  • Tuning: D A D G B E
    
    
    INTRO
                                                 x2
    |----------------------------------------------|
    |----------------------------------------------|
    |-11-11-12-12-14-14-14-14-11/12-1211-11-1211-|
    |----------------------------------------------|
    |-9--9--10-10-12-12-12-12-9-/10-109--9--109--|
    |----------------------------------------------|
    
    |-10-10-10-12-12-12-12-12-13-13-13-15-15-15-15-15-|
    |-10-10-10-12-12-12-12-12-13-13-13-15-15-15-15-15-|
    |-7--7--7--9--9--9--9--9--10-10-10-12-12-12-12-12-|
    |-------------------------------------------------|
    |-------------------------------------------------|
    |-------------------------------------------------|
    
    |-12/13-10-12/13-10-10-|-12/13-10-12/13-10-10-|
    |-12/13-10-12/13-10-10-|-12/13-10-12/13-10-10-|
    |-9-/10-7--9-/10-7--7--|-9-/10-7--9-/10-7--7--|
    |----------------------|----------------------|
    |----------------------|----------------------|
    |----------------------|----------------------|
    
    |-12/13-15-12/13-15-15-|-12/13-10-12/13-10-10-|
    |-12/13-15-12/13-15-15-|-12/13-10-12/13-10-10-|
    |-9-/10-12-9-/10-12-12-|-9-/10-7--9-/10-7--7--|
    |----------------------|----------------------|
    |----------------------|----------------------|
    |----------------------|----------------------|
    
    
    Guitar…
  • Standard tuning!!
    
    Intro -
    ---------------------------------|---------|
    ---------------------------------|----1----|
    -------0-------------------------|----0----|
    -2--2-----0--2-------------------|----2----|
    ---------------------------------|----0----|
    ------------------0--0--3--3--0--|---------|…
Наверх