Аккорды Daniel Ingram - Legend Of Everfree

Добавлено: @romashka
Дата добавления: 22 Августа 2022г.
Рейтинг:
0.0
Просмотров: 53
Транспонировать - +
[Интро]
                             
   [C]             [F]     [C]     [Am]            [G]     [C]
e|------------------5-555-----------5--75---------------------------|
B|------5---9---5-9-------9-5---5-9-------9-5---3---3--53-----------|
G|555---------------------------------------------5-------4-5-------|
D|-------------------------------------------------------------5-7--|
A|------------------------------------------------------------------|
E|------------------------------------------------------------------|

   [C]             [F]     [C]     [Am]            [G]    [C]
e|------------------5-555-----------5--75--------------------------|
B|------5---9---5-9-------9-5---5-9-------9-5---3---3-53-----------|
G|--5---------------------------------------------5-----54-5-------|
D|-----------------------------------------------------------------|
A|-----------------------------------------------------------------|
E|-----------------------------------------------------------------|



         C          F            C
Будешь ли ты забыт, иль в историю войдёшь?
            Am                C
Все узнают про тебя или ты всё делал зря?
           C               F            C
Будут ли в песнях все, тебя дружно воспевать?
         Am                  C
Сделай выбор сам, лишь тебе это решать


  Am      G       F      C    
Хо-о-о, О-о-о, Уо-о-о, О-о-у!
        Am                   C         
Здесь легенды творит Вечнозелёный Лес

           ---Хэй!---

  Am      G       F      C    
Хо-о-о, О-о-о, Уо-о-о, О-о-у!
        Am                   C         
Здесь легенды творит Вечнозелёный Лес!

      ---Хэй! Хэй! Хэй!---


         C               F          C
Сделай в лагере то, что не делал никогда!
       Am            C                      
Ты поборешь страх, жизнь изменишь навсегда!
            C          F          C
Ты придёшь домой, и тогда увидят все
          Am                  C
Ты стал частью легенды, что пишет Лес!


  Am      G       F      C    
Хо-о-о, О-о-о, Уо-о-о, О-о-о!
        Am                   C         
Здесь легенды творит Вечнозелёный Лес

           ---Хэй!---

  Am      G       F      C    
Хо-о-о, О-о-о, Уо-о-о, О-о-у!
        Am                   C         
Здесь легенды творит Вечнозелёный Лес!

           ---Хэй!---


 F           G
Кто же ты, герой из сказки?
 F        G
Иль упавшая звезда?
 F      C     Am
Приняв урок природы
 Dm      C
Узнаешь ты себя


((Аккорды не играются, можно топать ножкой каждую 1/4 ))

Будешь ли ты забыт, иль в историю войдёшь?
     
Все узнают про тебя или ты всё делал зря?
         
Ты придёшь домой, и тогда увидят все
       
Ты стал частью легенды, что пишет Лес!


  Am      G       F      C    
Хо-о-о, О-о-о, Уо-о-о, О-о-о!
        Am                   C         
Здесь легенды творит Вечнозелёный Лес

           ---Хэй!---

  Am      G       F      C    
Хо-о-о, О-о-о, Уо-о-о, О-о-у!
        Am                   C         
Здесь легенды творит Вечнозелёный Лес!
           ---Хэй!--- 

Бой: восьмёрка.
Наверх