Аккорды Daniel Lanois - That's the Way It Is (OST Red Dead Redemption 2)

Добавлено: @romashka
Дата добавления: 20 Декабря 2022г.
Рейтинг:
0.0
Просмотров: 128
Транспонировать - +
[Intro]:
   G              D                Em              C
e|----------------------------------------------------0-----------|
B|----------------------------------------------------1-----------|
G|---4-4-4--4-2-0----2-2-2--2-2-0------4-4-4-2-0------0-----------|
D|----------------4------------------------------4-2--2-----------|
A|----------------------------------------------------3-----------|
E|-3-------------------------------0------------------x-----------|
 
   G                D                 Em             C
e|------------------------------------------------------0---------|
B|------------------------------------------------------1---------|
G|---------------------------------------4-4-4-2-0------0---------|
D|----5-5-5-5---5-0-7--7---7-7---7-----------------4-2--2---------|
A|--------------------5--5-----5---5--------------------3---------|
E|-3----------3-----------------------0-----------------x---------|

[Куплет 1]:
G              D
The many miles we walked
Em               C
The many things we learned
G              D
The building of a shrine
Em           C
Only just to burn
G                   D
May the wind be at your back
Em                 C
Good fortune touch your hand
G                     D
May your cards lay out as straight
Em           C
All from your command.

[Припев]:
G            D
That's the way it is
Em            C
That's the way it is
G            D
That's the way it is
Em            C
That's the way it is

[Куплет 2]:
G                 D
Blue heron leaves the northen sky
Em                     C
Trusts the journey to new heights
G                      D
What's the meaning of the scar
Em                    C
If we don't learn how to heal
G                D
Should we ever be apart
Em             C
Then how does it feel

[Припев]:
G            D
That's the way it is
Em            C
That's the way it is
G            D
That's the way it is
Em            C
That's the way it is

[Бридж]:
Em              С
Shine light into darkness
Em              С
Shine light into darkness

[Проигрыш]:
G D Em D

[Припев]:
G            D
That's the way it is
Em            С
That's the way it is
G            D
That's the way it is
Em            С
That's the way it is

Строй: Eb.
Наверх