Аккорды «Darling Violetta»

Darling Violetta
Информация об исполнителе: Darling Violetta - это dark pop группа, базирующаяся в Голливуде, штат Калифорния. Их название взято из приветствия, используемого Bela Lugosi в письмах к своей хозяйке, Violetta Napierska. Группа выпустила свой первый EP "Bath Water Flowers" в 1997 году, хотя эта работа часто рассматривается как альбом в большинстве источников. Две песни из "Bath Water Flowers" ("Cure" и "Blue Sun") в исполнении группы были использованы в эпизоде "Faith, Hope & Trick" из телевизионного… Читать полностью... Информация об исполнителе: Darling Violetta - это dark pop группа, базирующаяся в Голливуде, штат Калифорния. Их название взято из приветствия, используемого Bela Lugosi в письмах к своей хозяйке, Violetta Napierska. Группа выпустила свой первый EP "Bath Water Flowers" в 1997 году, хотя эта работа часто рассматривается как альбом в большинстве источников. Две песни из "Bath Water Flowers" ("Cure" и "Blue Sun") в исполнении группы были использованы в эпизоде "Faith, Hope & Trick" из телевизионного сериала "Buffy the Vampire Slayer" (сезон 3, эпизод 3). Позднее они записали заглавную тему для сериала "Angel" ("The Sanctuary", вошла в состав альбома "Angel: Live Fast, Die Never"). В 2000 году Darling Violetta выпустили "The Kill You EP", а в 2003 году альбом "Parlour". Darling Violetta также написали и подготовили песню для компании "Activision", используемую в игре "Vampire: The Masquerade - Bloodlines". Скрыть...
Популярные аккорды Darling Violetta:
алфавиту | просмотрам | случайно
  • E----------------------------------------------------------------------------
    B----------------------------------------------------------------------------
    G-------0--7--5--4--2--0---------0--------0--7--5--4--11--12--5--5-----------
    D-2--4-------------------4--2--4-----2--4----------------------------4--2--4-
    A----------------------------------3--------------------------------2--------
    E----------------------------------------------------------------------------
    
    E----------------------------------------------------------------------------
    B----------------------------------------------------------------------------
    G-------0-----------0--2--5--4-5-4-2-7-5-4-2-0---------0--7--5--4--11--12--5-
    D2--4------4--2--4----------------------------4--2--4------------------------
    A---------2------------------------------------------------------------------
    E----------------------------------------------------------------------------
    
    E----------------------------------------------------------------------------
    B----------------------------------------------------------------------------
    G5--9------------------------------------------------------------------------
    D----------------------------------------------------------------------------
    A----------------------------------------------------------------------------
    E----------------------------------------------------------------------------…
  • Main Riff
    
    e--7-7-7-7-7-7-7-7--7-7-7-7-7-7--
    B--8p7h8p7h8p7h8p7--8p7h8p7h8p7--
    G--7-7-7-7-7-7-7-7--7-7-7-7-7-7--
    D--0----------------0------------
    A--------------------------------
    E--------------------------------
    
    Somewhere…
  • Intro
    
    e------1--------0--------0---------0--
    B--------3--------3--------3---2-3----
    G----2--------2--------0--------------
    D--0--------0--------0-------0--------
    A-------------------------------------
    E-------------------------------------
    
    I...want...to...kill...you…
  • Intro
    
    G----------------------------
    D----2----2----0-----0---0---
    A--0----3----5-----8---7-----
    E----------------------------
    
    Play this through a few times
    
    Verses:
    
    G------------------------------
    D------------------------------
    A----2------2------3----8---7--
    E--0----0-3----3-5----5---5----
    
    Chorus:
    
    G------------------------------------------------------------
    D------------------------------------------------------------
    A----------------5--5--5-5-5---3--3--3-3-3--7--7--7-7-7------
    E--3--3--3-3-3-----------------------------------------------…
  • Intro:
    
    G-----------------------------------------------------
    D-----------------------------------------------------
    A-------3-5-3-------2-3-2-------3-5-3-------2-3-2-----
    E--3h5---------3h5---------3h5---------3h5------------
    
    Verse:
    
    G------------------------------------------------------
    D------------------------------------------------------
    A----5--3--0--2-3-2-0-------5--3--0--5-7-5-3-----------
    E--3---------------------3-----------------------------…
  • Cello Intro
    
    e----------------------------------------------------------------------------
    B----------------------------------------------------------------------------
    G--2//7-7//9--9-7p6h7p6-2~~--9-7p6h7p6-/14—2~~-/6/7/9~~-9-12-14-12-9-6h7p6h7-
    D----------------------------------------------------------------------------
    A----------------------------------------------------------------------------
    E----------------------------------------------------------------------------
    
    e-------------------------------------
    B-------------------------------------
    G--2~~~---~~~12--~~14-6h7p6h7--1514--
    D-------------------------------------
    A-------------------------------------
    E-------------------------------------
    
    Guitar…
  • Main Riff
    
    e------0~-----0~-----0~-----0~------0~------0~------0~------0~--
    B------0~-----0~-----0~-----0~------0~------0~------0~------0~--
    G---------------------------------8-------8-------8-------8-----
    D----7------7------7------7-------9-------9-------9-------9-----
    A--9------9------9------9------11------11------11------11-------
    E---------------------------------------------------------------
    
    I've…
  • Main Riff (Intro & Verse)
    
    e----------------------------------
    B--8---8---8---8---7---7---7---7---
    G----9---9---9---9---8---8---8---8-
    D----------------------------------
    A----------------------------------
    E----------------------------------
    
    Cello…
  • Under guitar part
    
    G-----------------
    D-----------------
    A-------2/3/5-----
    E--3h5------------
    
    G--------------------------------------
    D--------------------------------------
    A-------5h7/9------------7^----5-------
    E--3h5---------------------------------
    
    ^…
  • Intro:
    
    e--9p7------9p7-----9p7-----9p7-----7p5-----7p5-----7p5-----7p5-----
    B-------7--------7-------7-------7-------5-------5-------5-------5--
    G-------------------------------------------------------------------
    D-------------------------------------------------------------------
    A-------------------------------------------------------------------
    E-------------------------------------------------------------------
    
    Verse:
    
    e--------9-------9--7-----7--9-----
    B------7---------------7-----------
    G----7-----------------------------
    D--0-------------------------------…
Наверх