Аккорды «Dashboard Confessional»

Dashboard Confessional
Американская инди-рок группа, основой чьего музыкального материала служат великолепные партии на акустической и электро-гитаре. Лидер группы - Крис Каррабба, родом из Флориды, как и все остальные участники группы. Легенда о вымучивании названия гласит о том, что это строчка из ранней песни Каррабба, где были слова "On the way home/This car hears my confessions". Отсюда имя Dashboard Confessional. Официально принято считать, что коллектив образовался в 1999 году в городе Бо́ка-Рато́н, штат… Читать полностью... Американская инди-рок группа, основой чьего музыкального материала служат великолепные партии на акустической и электро-гитаре. Лидер группы - Крис Каррабба, родом из Флориды, как и все остальные участники группы. Легенда о вымучивании названия гласит о том, что это строчка из ранней песни Каррабба, где были слова "On the way home/This car hears my confessions". Отсюда имя Dashboard Confessional. Официально принято считать, что коллектив образовался в 1999 году в городе Бо́ка-Рато́н, штат Флорида. а в 2002 Dashboard Confessional уже получали премию MTV Video Music Awards за свою песню Vindicated, которая успела засветиться аж в двух фильма - Shrek 2 и Spider-Man 2. У группы пять альбомов, наибольшего успеха добился MTV Unplugged 2.0 2002 года выпуска - в США пластинка стала платиновой. Скрыть...
Популярные аккорды Dashboard Confessional:
алфавиту | просмотрам | случайно
  • Tuning:Standard
    
    Intro
    
    e|----------------------------------------0--------------------------------|
    B|--0-------------------------------------------0--------------------------|
    G|----1h2p1------2--2p1------1h2p1----1h2---1h2----------------------------|
    D|-2--------2----------2----2-----2--2-------------------------------------|
    A|---0---------4-----------0--------0--------------------------------------|
    E|0-----------0-----------2--------2---------------------------------------|
    
    e|------------------------------------0----------0----------------------|
    B|--0--------------0-------------------------1p0---0h1------------------|
    G|----------------------------------2------2------------2---------------|
    D|-2---6p4-6p4-4p2---2-4-6p4-2----4------2------------------------------|
    A|---0--------------------------4---------------------------------------|
    E|0---------------------------------------------------------------------|
    
    
    The…
  • tuning: Eb Ab Db Gb Bb Eb
    
    There are only 5 chords in this song:
    
    C: 0  Bb: 0  Ab: 0  F: 0  G: 0
       0      0      0     0     0
       6      8      6     3     x
       6      9      7     4     6
       4      9      7     4     6…
  • Intro:
    
    e:--0---0---0---0
    B:--0---0---0---0
    G:--1---6---4---2
    D:--2---6---4---2
    A:--2---4---2---0
    E:--0---x---x---x
    
    Repeat 2x
    
    Verse:
    
    All Palm Muted (p.m.)
    e:--0---0---0---0
    B:--0---0---0---0
    G:--1---6---4---2
    D:--2---6---4---2
    A:--2---4---2---0
    E:--0---x---x---x
    
    Play…
  • key
    pm - palm mute
    h - hammer
    * - stoke upward once follow into next line
    tuning - flat...eb, ab, gb, db, bb, eb, 
    
     Verse 1
    
    Epm             h    (at the end of each hammer, he palm mutes again)
    breathe in for luck
    
    Bpm…
  • tuning Eb-Ab-Db-Gb-Bb-Eb
    
    intro
    ----4p0---2p0-----0----2p0------4p0----2p0-0----
    ---0-----0---4p0-0-0--0---4p0--0------0----0----
    -/6----/4-------2---/4-------/6-----/4-----2----
    -------------------------------------------2----
    -------------------------------------------0----
    -------------------------------------------0----
    
    Verse
    -0--0--0--0---------------------------------------------
    -0--0--0--0---------------------------------------------
    -1--2--6--0---------------------------------------------
    -2--4--6--7---------------------------------------------
    -2--4--4--7--figure…
  • Tuning= ebgdaG
    G= 355633
    B= 244422
    E= 022100
    D= 000232
    C= 332010
    
    Intro.
    
    
    e-3---3----3---3----3---3----3---3
    b-3---3----3---3----3---3----3---3
    g-3---3----3---3----3---3----3---3    Bar the whole 3rd fret
    d-4---3----4---3----4---3----4---3
    a-4---4----4---4----4---4----4---3
    G-3---4----3---4----3---4----3---4
    
    Jamie,…
  • tune down  Eb Ab Db Gb Bb Eb 
    
    chords
    
    Em Eb(0)   Am  Eb(0)     C maj7 Eb(0) Dadd11 Eb(0)    
       Bb(0)       Bb(0)            Bb(0)        Bb(0)
       Gb(0)       Gb(0)            Gb(0)        Gb(0)
       Db(9)       Db(10)…
  • Tuning: Half-Step Down
    
    Intro:
    
    e|-0---0---0---0------|
    B|-0---0---0---0------|
    G|-6---9---6---7------| 
    D|-7---9---6---7------|
    A|-7---7---4---5------|
    E|-5---0---0---0------|
    
    
    Verse:
    
    
    e|-0---0---0---0------|
    B|-0---0---0---0------|
    G|-6---9---6---7------|
    D|-7---9---6---7------|
    A|-7---7---4---5------|
    E|-5---0---0---0------|
    
    
    Chorus:
    
    e|-0---0---0---0------|
    B|-0---0---0---0------|
    G|-6---6---7---9------|
    D|-7---6---7---9------|
    A|-7---4---5---7------|
    E|-5---0---0---0------|
    
    
    Outro:
    
    e|-0---0---0---0--------------|
    B|-0---0---0---0--------------|
    G|-6---9---6---7--------------|
    D|-7---9---6---7----7-9--11---|
    A|-7---7---4---5----9-11-12---|
    E|-5---0---0---0--------------|…
  • tuining is DADDDD
    
    Verse:
    Db ---0-0--0-0------------0-0--0-0--0-0--0-0---0/0--0-0--0-0--0-0---------- 
    Db ---0-0--0-0------------0-0--0-0--0-0--0-0---0/0--0-0--0-0--0-0---------- 
    Db ---0-0--0-0---x4-------0-0--0-0--0-0--0-0---0/0--0-0--0-0--0-0----------…
  • Tuning: Db-Ab-Db-Db-Db-db
                        /
                 This string is going to ring   
                 a little if your strings aren't This is the advice
                 a high gauge.                   /of Chris.
    
    now…
  • Db tuning (Db, Ab, Db, Gb, Bb, eb)
    
    Verse
    |-5-5-5-5-5-5-5-5-----------------5-5-5-5-5-5-5-5-5-5-5-5--5-5-5-5--5-5-5-5-
    |-7-7-7-7-7-7-7-7-5-5-5-5-5-5-5-5-3-3-3-3-3-3-3-3-5-5-5-5--5-5-5-5--5-5-5-5-
    |-7-7-7-7-7-7-7-7-5-5-5-5-5-5-5-5-4-4-4-4-4-4-4-4-7-7-7-7--7-7-7-7--7-7-7-7-
    |-7-7-7-7-7-7-7-7-5-5-5-5-5-5-5-5-5-5-5-5-5-5-5-5-7-7-7-7--7-7-7-7--7-7-7-7-
    |-5-5-5-5-5-5-5-5-3-3-3-3-3-3-3-3-------------------------------------------
    |---------------------------------------------------------------------------…
  • Tuning: standard
    
    Here is my attempt at tabbing one of the rarer Dashboard songs out there. Although 
    it is hard to find, it is definitely anti_khrys calibur. In this song, the chorus 
    varies from one to another. I tabbed…
  • Eb tuning (Eb, Ab, Db, Gb, Bb, eb)
    
    In the intro, the second guitar comes in second time round and then they play
    straight into the verse.  I couldn't work out if the second guitar was playing
    something different in the…
  • Part A
    e|--0--0-0|--0--0-0|--0--0-0|--0--0-0
    b|--0--0-0|--0--0-0|--0--0-0|--0--0-0
    g|--9--9-9|--9--9-9|--9--9-9|--9--9-9
    d|--9--9-9|--9--9-9|--9--9-9|--9--9-9       x4
    a|--7--7-7|--7--7-7|--7--7-7|--7--7-7
    E|--0--0-0|--0--0-0|--0--0-0|--0--0-0…
  • Tuning: One-half step down.
    (Strumming patterns not included)
    
    Verse One
    
    eb--------------------------------------------------------|
    Bb--------------------------------------------------------|
    Gb-4-------------------------------------4----------------|
    Db-6-------------------------------------6----------------|
    Ab-7-------------------------------------7----------------|
    Eb-0-------------------------------------5----------------|…
  • Guitar Tuned down half step (Eb) 
    
    verse: 
    eb--------------------------------- 
    Bb--------------------------------- 
    Gb--------5------7------3---------- 
    Db--------5------7------3---------- 
    Ab--------3------5------1----------…
  • Verse:
    Listen to the song for the strumming pattern
    eb----2------0------3------0-----0-----2-----|
    Bb----3------3------0------0-----3-----3-----|
    Gb----2------3------0------0-----3-----2-----|
    Db----0------3------0------2-----3-----0-----|
    Ab----0------0------2------2-----0-----0-----|
    Eb----x------0------3------0-----0-----x-----|
    
    Chorus:
    Something…
  • Tuning 1/2 Step flat (EbAbDbGbBbeb)
    Capo 4*
    *all numbers are relative to capo, duh!
    
    Intro
    eb|---------|---------|---------|------2--|---------|---------|
    Bb|-------3-|-------3-|-------3-|-------3-|-------3-|-------3-|
    Gb|-----0---|-----0---|-----0---|-----0---|-----0---|-----0---|
    Db|---0-----|---0-----|---0-----|---0-----|---0-----|---0-----|
    Ab|---------|---------|---------|---------|---------|---------|
    Eb|-3-------|-0-------|-1-------|-3-------|-0-------|-1-------|
    
    eb|-------3-|---------|---------|------2--|---------|---------|
    Bb|---------|-------3-|-------3-|-------3-|-------3-|-------3-|
    Gb|-----0---|-----0---|-----0---|-----0---|-----0---|-----0---|
    Db|---0-----|---0-----|---0-----|---0-----|---0-----|---0-----|
    Ab|---------|---------|---------|---------|---------|---------|
    Eb|-3-------|-0-------|-1-------|-3-------|-0-------|-1-------|
    
    Verses
    
    eb|---------|---------|---------|-------3-|---------|---------|
    Bb|-------3-|-------3-|-------3-|---------|-------3-|-------3-|
    Gb|-----0---|-----0---|-----0---|-----0---|-----0---|-----0---|
    Db|---0-----|---0-----|---0-----|---0-----|---0-----|---0-----|
    Ab|---------|---------|---------|---------|---------|---------|
    Eb|-3-------|-0-------|-1-------|-3-------|-0-------|-1-------|
    
    Pre-Chorus…
  • Intro
    --2------|
    --4------|
    --4------|
    ---------|
     --------|
    ---------|
    
    
    Guitar 2
    ------------|
    --4-2-5-4---|
    --4-3-2-2---|
    ------------|
    ------------|
    ------------|
    
    
    Verse
    --0--0--0--0------|
    --4--4--4--4------|
    --4--4--4--4------|
    --x--x--2--x------|
    --2--4--0--4------|
    ------------------|
    
    
    Chorus
    --0--0--0--0-----|
    --0--0--0--0-----|
    --4--6--0--6-----|
    --4--6--7--6-----|
    --2--4--7--4-----|
    ---------5-------|
    
    He…
  • Intro/Verse
    eb|------------------------------------------------------------------------|
    Bb|------------------------------------------------------------------------|
    Gb|-5-5-5-5----------------------------------------------------------------|
    Db|-5-5-5-5--2-2-3-3--5-5/6-7-7--2-2--3-3-3-3------------------------------|
    Ab|-3-3-3-3--2-2-3-3--5-5/6-7-7--2-2--3-3-3-3------------------------------|
    Eb|----------0-0-1-1--3-3/4-5-5--0-0--1-1-1-1------------------------------|
    
    Pre…
  • Chords Used
    -x--x---x--x-----x--3---3------0---2--3--2--0--0------------|
    -0--1---1--3-----3--3---3------0---1--1--3--3--3------------|
    -0--0---0--0-----2--0---2------0---2--0--2--2--0------------|
    -0--0---2--4-----4--0---0------9---0--2--0--0--2------------|
    -x--x---3--5-----0--2---0------7---0--0--0--0--2------------|
    -3--3---x--x-----x--3---2------x---x--x--x--x--0------------|
    G6…
  • Eb tuning
    
    |-5-------------------------------------|
    |---0-----------------------------------|
    |-----6-7-6/2-----2---------------------|
    |-------------0-----0-------------------|
    |---------------2-----2-------5---------|
    |-----------------------2-5-5---2-5/7-3-|
    
    |-2-----0-----2-----3-----|--2------0-----2-----3-----|-2-----0----2----3-----|
    |-3-----2-----3-----3-----|--3------2-----3-----3-----|-3-----2----3----3-----|
    |-2-----2-----4-----0-----|--2--2---2-----4-----0-----|-2-----2----4----0-----|
    |-0-----2-----4-----0-----|--0--0---2-----4-----0-----|-0-----2----4----0-----|
    |-------0-----2-----2-----|---------0-----2-----2-----|-------0----2----2-----|
    |-------------------3-----|---------------------3-----|-----------------3-----|…
  • Intro
    eb|-----------------------------------------------------------------4------|
    Bb|-6-----6------6------6-----6------7-----7-----7-----7--------------4--2-|
    Gb|----6-----6-------6-----6-----6-------6----6------6----6----4--6--------|
    Db|----------------------------------------------------------3-------------|
    Ab|------------------------------------------------------------------------|
    Eb|------------------------------------------------------------------------|
    Verse
    eb|------------------------------------------------------------------------|
    Bb|------------------------------------------------------------------------|
    Gb|-6----------3--8-------6-4--3-------------------------------------------|
    Db|-6---6---3--3--8---4---6-4--3--4--6-------------------------------------|
    Ab|-4---6---3--1--6---4---4-2--1--4--6-------------------------------------|
    Eb|-----4---1---------2-----------2--4-------------------------------------|
    Chorus
    eb|-----------------------------|
    Bb|-----------------------------|
    Gb|-6--8-----4------------------|
    Db|-6--8--3--4------------------|
    Ab|-4--6--3--2------------------|
    Eb|-------1---------------------|
    Bridge
    eb|-----------------------------|
    Bb|-----------------------------|
    Gb|--6--3-----8-----------------|
    Db|--6--3--4--8-----------------|
    Ab|--4--1--4--6-----------------|
    Eb|--------2--------------------|…
  • Db Ab Db Db Db Db 
    Verse: 
    This is where i say ive had enough. no one should 
    Db-----------------------0-------------------------------0-------------------
    Db-----------------------0-------------------------------0-------------------…
  • A	E
    she smiled in a big way, the way a girl like that smiles
                                   F#m                                D
    when the world is hers and she held your eyes
    	A                          E…
  • Capo 2
    
    Intro/Verse:
    e|-0-------------------------------------------------------------------------|
    B|-0----------2-0-2-4--------------------------------------------------------|
    G|-0-------------------------------------------------------------------------|
    D|-0-2-4---2-----------------------------------------------------------------|
    A|-0-4-5-2-3-----------------------------------------------------------------|
    E|-0-------------------------------------------------------------------------|
    Pre…
  • Tuning: Dd Ad Dd Dd Dd d
    
    Intro:
    
    E-------0------------------ 0------------------------------0----------|
    B-------0------------------ 0------------------------------0----------|
    G-------0------------------ 0------------------------------0----------|
    D-------7------------------…
  • TUNED to D Flat.
    
    For now, just listen to the song on the DC myspace to learn the strumming patterns and 
    progressions.
    
        "How can you ask for forgiveness..." (use very "hoppy" fingers)
    db|----0------4-4-5-0-----4-4-4-4-5-0--|
    db|----0------0-0-0-0-----0-0-0-0-0-0--|
    Db|----0------0-0-0-0-----0-0-0-0-0-0--|
    Db|----0------4-4-5-0-----4-4-4-4-5-0--|
    Ab|----0------0-0-0-0-----0-0-0-0-0-0--|
    Db|----0------0-0-0-0-----0-0-0-0-0-0--|
    
    "so…
  • Chord Structures are as follows. Everything repeats four times.
    sleep............lights.........happy.......secure
    eb-0---------0----------0----------0
    Bb-0---------0----------0----------0
    Gb-4---------4----------3----------6…
  • Tuning - (high to low) eb Bb Gb Db Ab Eb
    
                       Main Riff
    
    eb|------------------------------------------------|
    Bb|------------------------------------------------|
    Gb|-----3------3----------------------------4------|
    Db|------4------4--4-4-4/6----6p4----6p4--4--4-3h4-|
    Ab|---------------2-2-2------------------2-2-------|
    Eb|-2-2----2-2-------------4-4----4-4--------------|…
  • The fingering for the first part is a simple Em.
    
    Eb:--------------------------------------------------------|
    Bb:--------------------------------------------------------|
    Gb:--------------------------------------------------------|
    Db:2-2--2-2-2-2--2-2---------------------------------------|
    Ab:------------------2-2-----------------------------------|
    Db:---------------------5-5--2-2--0-0-2-0------------------|
    
    then…
  • Intro:
    G       C
                 G                    Am
    Why do you speak with that accent now?
               F                         C
    Everyone knows you're not from the streets.
                 G                       Am…
  • Verse: 
    
    e------0---------------------0--------------------------
    B---------2-----0---2------------2------0h2p0-----------
    G----------------------------------------------2-------- 
    D-------------------------------------------------------
    A--0---------0----0-------------------------------------
    E------------------------2-----------2------------------
    
    e-------------------------------------------------------…
  • Tunging: Eb (Eb Bb F# C# Ab Eb)
    
       Chords Used       (-0--2--4-) explained
    e|-0--0--4--2--|   e|-0-----------0-|
    B|-0--0--4--2--|   B|-0-----------0-|
    G|-1--2--5--3--|   G|-1-----------2-|
    D|-2--2--6--4--|   D|-2-----------2-|
    A|-2--0--6--4--|…
  • Tuning- eb bb gb db Ab Eb
    Intro-D-A-G
    pIANO
    |-14-----------------14-----------------|
    |----15-----------------15--------------|
    |-------14--11h12-14-------14--11h12-14-|
    |---------------------------------------|
    |---------------------------------------|
    |---------------------------------------|
    
    Verse-D…
  • Intro
    ----
    
    e|--3------------------------------------3-----------------3-------------------|
    B|--3------------------------------------3-----------------3-------------------|
    G|--0------------------------------------0-----------------0-------------------|
    D|--0------------------------------------0-----------------0-------------------|
    A|--x------------------------------------2-----------------3-------------------|
    E|--3------------------------------------x-----------------x-------------------|
    
    Verse…
  • Key of B Major
    {B  C#  D#  E  F#  G#  A#  B}
    
    
    Intro RIFF
    E|-------14------14------14--------|
    B|---12------12------12------14----|
    G|---------------------------------|
    D|---------------------------------|
    A|---------------------------------|
    E|---------------------------------|
    
    Major…
  • Tuning: Standard EADGBe but originally Standard Eb-Ab-C#-F#-Bb-Eb
    
    Chords used: following Standard EADGBe
    Cm -   x35543
    Gm -   355333
    G# -   466544
    Eb -   x68886
    Fm -   133111
    B -    x24442
    C# -   x46664
    Eb/G -…
  • Tuning: Eb
    
       D    F#   B    G    E    A
    Eb-2-  ---  ---  ---  ---  ---
    Bb-3-  ---  ---  ---  ---  ---
    Gb-2-  -3-  -4-  ---  ---  ---
    Db-0-  -4-  -4-  -5-  -2-  -7-
    Ab---  -4-  -2-  -5-  -2-  -7-
    Eb---  -2-  ---…
  • Intro
    play (2x) 
    e----0------------0-----0-----0---------------------------------0--
    B----0------------0-----0-----0---------------------------------0--
    G----1------1-----1---/-6-----0-----2--2---2--2--2-----2-----1-----
    D----2------4-----1---/-6-----2-----4--2---4--2--4-----4-----2-----
    A----2------2-----2---/-7-----4-----4--4---4--4--4-----3-----2-----
    E----0------------0-----0-----0---------------------------------0--
    
    A2…
  • Tuning: Eb-Ab-Db-Gb-Bb-Eb
    
    Verse
    
    When I'm back from the road, then you're out on it..
    Eb|--3---0---0--0---0------------------------------------------
    Ab|--3---0---0--1---0------------------------------------------
    Db|--0---0---2--2---0------------------------------------------
    Gb|--0---2---2--2---5------------------------------------------
    Bb|--2---2---0--0---3------------------------------------------
    Eb|--3---0---0--0---0------------------------------------------…
  • F:003210
    
    
    C                        Am
    We are the only ones who feel it
    C                 F                C                              Am
    Tonight we drink, tonight we dance with all the last ones who can hear it
    C…
  • C x35553
    Gm 355433
    Fm x79987
    
    Intro C - Gm - Fm - Gm
    (Strum down, up, down, up, down, up, down, down, up with the last two strums much 
    faster then the others as you switch to the next chord. Listen to the song for…
  • Tuning: half step down
    
    Chords:
    
    E- 022100
    A- 577655
    Fm-244222
    D- xx0323
    
    Verse:
    
    A                    E
    You will wait in the widows peak
                           Fm
    And while you watch the ships come in…
  • x = muted note or chord
    
    Tuning: 1/2 step down - Eb Ab Db Gb Bb eb
    
    
    [ intro ]
    eb|--0---| 
    Bb|--0---| 
    Gb|--8---| 
    Db|--8---| 
    Ab|--6---| 
    Eb|--0---| 
    
    
    [ verse ]
    eb|--0--0---| 
    Bb|--0--0---| 
    Gb|--1--8---| 
    Db|--2--8---|…
  • E, C#, B, A
    
    thats the whole song
    
    e|------|------------------------------------------------------|---------------|
    B|------|------------------------------------------------------|---------------|
    G|------|-------------------7-7777--------------------7-7777-7-|-6-66666666-7~-|
    D|-7----|-7-77777777-4-4444-7-7777--7-77777777-4-4444-7-7777-7-|-6-66666666-7~-|
    A|-7-x7-|-7-77777777-4-4444-5-5555--7-77777777-4-4444-5-5555-5-|-4-44444444-5~-|
    E|-5----|-5-55555555-2-2222---------5-55555555-2-2222----------|---------------|…
  • Intro/verse: 
    E|--------------------------------------------------------------------------------| 
    B|--3------3-----3-----3-----5/7----8-----8-----8----8-----10------10-----10------| 
    G|----0------0-----0-----0------------0-----0-----0----0------0-------0------0----|…
  • Eb tuning (Eb, Ab, Db, Gb, Bb, eb)
    
     Intro
    |------------------------------------------------------------------------------
    |------------------------------------------------------------------------------
    |-------2p0-----------------------0-0-----0-0-----0-0-----0-0-----0-0-----0-0--
    |-0h2h4-----4-----3-3-----0-0-----2-2-----2-0-----5-5-----5-0-----4-4-----4-0--
    |-----------------2-2-----2-2-----3-3-----3-3-----4-4-----4-4-----5-5-----5-5--
    |-------------3-3-3-3-3-3-3-3-3-3-3-3-3-3-3-3-5-5-5-5-5-5-5-5-5-5-5-5-5-5-5-5--
    
    -------------------------------------------------------------------|
    -------------------------------------------------------------------|
    ---------------------0-0-----0-0-----0-0-----0-0-----0-0-----0-0---|
    -----3-3-----3-0-----2-2-----2-0-----5-5-----5-0-----4-4-----5-4-0-|
    -----2-2-----2-2-----3-3-----3-3-----4-4-----4-4-----5-5-----5-5-5-|
    -3-3-3-3-3-3-3-3-3-3-3-3-3-3-3-3-5-5-5-5-5-5-5-5-5-5-5-5-5-5-5-5---|
    
    Verse
    |-----------------------------------------------------------------
    |-----------------------------------------------------------------
    |---------------------0-0-----0-0-----0-0-----0-0-----0-0-----0-0-
    |-----3-0-----3-0-----2-2-----2-0-----5-5-----5-0-----4-4-----4-0-
    |-----2-2-----2-2-----3-3-----3-3-----4-4-----4-4-----5-5-----5-5-
    |-3-3-3-3-3-3-3-3-3-3-3-3-3-3-3-3-5-5-5-5-5-5-5-5-5-5-5-5-5-5-5-5-
    
    Chorus
    |----3--------------------------0------------------------0----------0---0-0---
    |----0--------------------------0------------------------0----------0---0-0---
    |----0--------------------------0------------------------0----------0---0-0---
    |----0--------------------------4------------------------5----------5---7-9---
    |----2--------------------------5------------------------7----------7---9-12--
    |----3------------------------------------------------------------------------…
  • CHORDS:
    
        G     C9     Em7    G/D   D/F#
    e|--3------3------3-----3------3--|
    B|--3------3------3-----3------3--|
    G|--0------0------0-----2------0--|
    D|--0------X------X-----0------0--|
    A|--X------3------2-----0------X--|
    E|--3------X------0-----0------2--|
    
    Intro:…
  • Tuning: Down 1/2 Step Eb Ab Db Gb Bb eb
    
    Chords:
    
    D  = 000232
    G  = 320033
    A  = 000222
    Bm = 024432
    
    pm = Palm Mute
    
    
    
    Intro:
    
    e|--------------2---3--2------------2---3--2--|
    B|--------------3---3--2------------3---3--2--|
    G|--------------2---0--2------------2---0--2--|
    D|-2-2p0------------0------2-2p0--------0-----|
    A|--------0---------2------------0------2-----|
    E|------------------3-------------------3-----|
    
    Verse…
  • Tuning:
    e-> Db tune down 1 step
    B-> Db tune up 1 step
    G-> Db tune down 2 1/2 steps
    D-> Db tune down 1/2 step
    A-> Ab tune down 1/2 step
    E-> Db tune down 1 step
    
    Chords: For the purpose of the song I'll label them…
  • Capo 2
    
    
    Intro: C/E
    
    
    C/E
       Over the fence
       C          G
    My foot gets a hold 
           C/E
    of the grate,
    And up to the rope
        C           G
    Who knows if it cant 
            C
    take my weight…
  • Key: Ab
    
    Tuning: Standard EADGBe
    
    Chords used:
    Ab -   466544
    Cm -   x35543
    C# -   x46664
    Fm -   133111
    Eb -   x68886
    Eb/G - 365xxx
    
    
    Verse 1:
            Ab       Eb/G
    There's things I know I 
    Fm…
  • Standard Tuning
    Capo on 1st Fret
    
    Intro / Verses
    
    |--------------------|--------------------|
    |--------------------|--------------------|
    |--------5-----------|--------10----------|
    |--------------------|--------------------|
    |-----6-----6/11-----|-----11-----11\6----|
    |--4-----------------|--9-----------------|…
  • Key: C#
    
    Tuning: Standard EADGBe
    
    Chords used:
    Bbm -  x13321
    Ebm -  x68876
    C# -   x46664
    Ab -   466544
    F# -   244322
    C#/F - 143xxx
    
    
    Intro: Bbm--Ebm-Ab--Ebm- x2
    
    
    Verse 1:
    Bbm
       I made my slow way home
    Ab…
  • Tuning: standard
    
    (To play with capo on 1 the chords are:
    C#=C, Bbm=Am, F#=F, Ab=G, Fm=Em
    
    chords:
       C# Bbm:(1)(2)   F#   Ab   Fm 
    e|-4-------6--1-----2----4----1------------|
    B|-6-------6--2-----2----4----1------------|
    G|-6-------7--3-----3----5----1------------|
    D|-6-------8--3-----4----6----3------------|
    A|-4-------8--1-----4----6----3------------|
    E|-x-------6--x-----2----4----1------------|
    
    intro:
    
    C…
  • Standard Tuning
    
    Intro
    
    e------------------------------------------------
    B------------------------------------------------
    G------------------------------------------------
    D--------6--3------6-3--------6-3-4-3-1-3--------…
  • Key: C#
    
    Tuning: Standard EADGBe
    
    Chords used:
    C# -   x46664
    C#/F - 143xxx
    F# -   244322
    Ab -   466544
    Bbm -  x13321
    Ebm -  x68876
    
    
    Intro: C#(Piano)
    
    
    Verse 1:
            C#
    We went rolling up the coast til…
  • Intro
    |-----------------------------------------------------|
    |-----------------------------------------------------|
    |-----------------------------------------------------|
    |-5--7-8-7---5--7-8-7---5--7-8-7---5--7-8-7-10-8-7-8--|
    |-----------------------------------------------------|
    |-----------------------------------------------------|
    
    |---------------------------------------------------------|
    |---------------------------------------------------------|
    |---------------------------------------------------------|
    |---------------------------------------------------------|
    |--12-14-13-16-14-17-15-18-16-19-15-18-14-17-13-16-12-14--|
    |---------------------------------------------------------|
    
    Fill…
  • Tuning: Standard EADGBe
    
    Intro:(G x4,Am x4,F x8)x2
    
    G           Am
    I lay down, I cant sleep 
    F
    My mind drums on repeat 
    G          Am          F
    I stare at the ceiling from my side 
    G           Am
    I reach out…
  • -2-3-------2-----------------5---------
    -3-3-------2---------------6-----------
    -2-3-------3--------5-----5-------------
    -------5------7--3--5------------------
    -------5------7--3--3------------------
    -------3------5--1--------------------
    
    -2-3-------2-----------------5---------
    -3-3-------2---------------6-----------
    -3-1-----3--------5-5---5-------------
    -------5------7--3--5------------3-----
    -------5------7--3--3------------3-----
    -------3------5--1---------------1---
    
    -2-2-2--2--2--2----------------2--------
    -3-3-3-----------3--3--3-------3--------
    -2-2-2---------------------2---2--------
    ------------------------------------3---
    ------------------------------------3---
    ------------------------------------1---
    
    now…
  • don't know name of this chord (but lets call it Dsus3):
    
    e:]---000-|
    B:]---111-|
    G:]---000-|
    
    
    Intro
    e:]-----0---------------------------0-|
    B:]-1-3---0-3/1---1---1-0---0-1-3-----|
    G:]-------------2---2-----2-------0---|
    D:]-----------------------------------|
    A:]-----------------------------------|
    E:]-----------------------------------|
    
    e:]-----0-------------------------3-0-|
    B:]-1-3---0-3/1---1---1-0---0-1-3-----|
    G:]-------------2---2-----2-----------|
    D:]-----------------------------------|
    A:]-----------------------------------|
    E:]-----------------------------------|
    
    e:]-----11111-0-|
    B:]-1-3-33333-1-|
    G:]-----22222-0-|
    D:]-------------|
    A:]-------------|
    E:]-------------|
    
    
    VERSE:
    
    C…
  • Tuning: Half Step Down (D# G# C# F# A# D#)
    Key of D#
    {Eb  F  G  Ab  Bb  C  D  Eb}
    
    		
    CHORDS		EADGBE (Half step down)
    Bb		799877
    A#add11		799800
    A#7Madd11	X68800
    Cm7		X46600
    Csus2		446644
    Eb5		X79900
    Ebsus2		X79977
    Gm		466X00
    Gm…
  • Key: B
    
    Tuning: Standard EADGBe
    
    Chords used:
    B -     x24442
    F# -    244322
    Abm -   466444
    E -     022100
    F#/Bb - x143xx
    
    
    Intro: B--
    
    
    Verse 1:
    B                  E
      A line of strands to mark the trail
    E…
  • Tuning: FADGCe ------> Down A Half Step (E Ab Db Gb B eb)
    
    Verse:
    
    eb:--0----------------0----------------0---------------0----------------|
    B :--0----------------0----------------0---------------0----------------|
    Gb:--5----------------4----------------9---------------4----------------|
    Db:--5----------------5----------------10--------------5----------------|
    Ab:--3----------------3----------------8---------------3----------------|
    E…
  • Tuning:EADF#BD#
    
      Intro
    D#|----0-----0-----|---0-----0-----|---0-----0-----|---0-------0-----|
    B |------0-----0---|-----0-----0---|-----0-----0---|-----0-------0---|
    F#|--------------0-|-------------0-|-------------0-|-------0-------0-|
    D…
  • intro
    e-----------------------------------------------|
    b-------------------------0------1/0------------|  /=pull of
    g-------0-----0---------2------------0----------|
    d-----3---------2-----1--------2----------------|
    a---2-------2------2---------3------------------|…
  • When he plays F in this song, it's Fsus, but any other variation will do
    Fsus4: 1332XX or 133XXX
    F: 133211, X3321X
    
    Intro:
    C F Am F X2
    
    Verse:
             C           F
    Would it kill you to breathe
          Am    F…
  • Guitar 1 just repeats this (rhythm not shown)
    Eb|---0----0----0----0--|--0----0----0----0---
    Bb|---0----0----0----0--|--0----0----0----0---
    Gb|---4----4----4----4--|--4----4----4----4---
    Db|---2----2----2----2--|--2----2----2----2---
    Ab|---4----0----X----0--|--4----0----X----2---
    Eb|---0----0----4----0--|--0----0----4----0---
    
    Guitar…
  • I'm not Sure of anyone.....anyone 
    E---x------------x-------5----------------------------------------- 
    B---x------------x-------5----------------------------------------- 
    G---6------------2-------7-----------------------------------------…
  • Tuning: DbGbDbGbAbDb
    
    Intro, Verse (it's yet to be determined....)
    Dbxx---(0)-(0)(5)(0)--------------------5--7--7-
    Abxx-5--5---5--5--5--5--12-9/-10--------5--5--7- 
    Gbxx-0--0---4--0--4--7---0-0--0---7--11-0--0--0- 
    Dbxx-0-(0)--4--0--2--5--12-9/-10--5--9--0--x--0-
    Gbxx-0--5---4--5--4--5--12-9/-10--5--9-----7----
    Dbxx-5------------2-----------------------------
    
    Here's…
  • CAPO 3rd FRET
    
     C         F         Am          G
    |--0--|   |--0--|   |--0--| |--3--|
    |--1--|   |--1--|   |--1--| |--3--|
    |--0--|   |--2--|   |--2--| |--0--|
    |--2--|   |--3--|   |--2--| |--0--|
    |--3--|   |--3--|…
  • First guitar 
    
    e---------4-5-----2--2---4-5--
    b-0--0------------------------
    g-----------------------------
    d-----------------------------
    a-----------------------------
    E-----------------------------
    
    second guitar
    e--------7--9--------7--9
    
    third…
  • Tuning: E flat
    
    Intro:
    
    E----------------------------------|--------------------------0-------|
    B------0---------------------------|--------------------------------0-|
    G----------1h2p1-------2-----2p1---|--------1h2p1---------1h2---1h2---|
    D----2-----------2---------0-----2-|------2-------2-----2-------------|
    A--------0-----------4---0---------|----0-------------0---------------|
    E--0---------------0---------------|--2-------------2-----------------|
    
    E----------------------------------|--------0---------------0---------|
    B------0---------------0-----------|----------------------0---0-------|
    G----------------------------------|------2-------------5-------5-----|
    D----2-----6p4h6p4-4p2---2-4h6p4-2-|----4-------------7-----------7---|
    A--------0-------------------------|--4-------------7-----------------|
    E--0-------------------------------|----------------------------------|
    
    Verse:
    
    E----------------0---------------|------------------0---0-0-----------|
    B----------------0---------------|------------------0---0-0-----------|
    G-13--13--13-14--6---------------|-13--13--13-14-13-4---2-2-----------|
    D--x---x---x-x---6---------------|--x---x---x--x--x-4---2-2-----------|
    A-11--11--11-12--0---------------|-11--11--11-12-11-0---0-0-----------|
    E--0---0---0-0-------------------|--0---0---0--0--0-------------------|
    
    E----------------0---------------|------------------0---0-0-----------|
    B----------------0---------------|------------------0---0-0-----------|
    G-13--13--13-14--6---------------|-13--13--13-14-13-4---2-2-----------|
    D--x---x---x-x---6---------------|--x---x---x--x--x-4---2-2-----------|
    A-11--11--11-12--0---------------|-11--11--11-12-11-0---0-0-----------|
    E--0---0---0-0-------------------|--0---0---0--0--0-------------------|
    
    Chourus:
    
    E--0-------2-------0-------------|---------------------0--------------|
    B--0-------2-------0-------------|---------------------0--------------|
    G--1-------2-------6-------------|-14-13-11-9---11-8---6--------------|
    D--2-------4-------6-------------|--x--x--x-x----x-x---6--------------|
    A--2-------4-------0-------------|-12-11--9-7----9-6---0--------------|
    E--0-------2---------------------|--0--0--0-0----0-0------------------|
    
    E--0-------2-------0-------------|---------------------0--------------|
    B--0-------2-------0-------------|---------------------0--------------|
    G--1-------2-------6-------------|-14-13-11-9---11-8---6--------------|
    D--2-------4-------6-------------|--x--x--x-x----x-x---6--------------|
    A--2-------4-------0-------------|-12-11--9-7----9-6---0--------------|
    E--0-------2---------------------|--0--0--0-0----0-0------------------|
    
    End:
    
    E---0-------|
    B---0-------|
    G---1-------|
    D---2-------|
    A---2-------|
    E---0-------|…
  • Verse
    e----0-----------------0-------0------0-----------------0-------0-------|
    B----1-----------------0-------1------1-----------------0-------1-------|
    G----0-----------------0-------0------0-----------------0-------0-------|…
Наверх