Аккорды David Bowie - The Man Who Sold The World

Добавлено: @romashka
Дата добавления: 28 Сентября 2019г.
Рейтинг:
0.0
Просмотров: 25
Транспонировать - +
Intro:
    A                   Dm                  F             Dm
E|----------------------------------------------------------|
B|----------------------------------------------------------|
G|--2-2-2-0-2-3-2-0-----2-2-2-0-2-3-2-0-----2-2-2-0-2-3-2-0-|
D|----------------------------------------------------------|
A|----------------------------------------------------------|
E|----------------------------------------------------------|

                        A                        Dm
We passed upon the stairs, we spoke of was and when
                      A   A7                    F
Although I wasn't there, he said i was his friend
                          C                A
Which came as some surprise, I spoke into his eyes
                    Dm                      C
I thought you died alone, a long long time ago
C           F 
Oh no,    not me
Bbm             F
I never lost control
C               F
Your'e face  to face
Bbm                           A 
with the man who sold the world

    A                   Dm                  F             Dm
E|----------------------------------------------------------|
B|----------------------------------------------------------|
G|--2-2-2-0-2-3-2-0-----2-2-2-0-2-3-2-0-----2-2-2-0-2-3-2-0-|
D|----------------------------------------------------------|
A|----------------------------------------------------------|
E|----------------------------------------------------------|

                          A                         Dm
I laughed and shook his hand, and made my way back home
                          A    A7                     F
I searched for form and land, for years and years i roamed
                   C                        A
I gazed a gazely stare at all the millions here
                    Dm                     C 
We must have died alone' a long long time ago
C             F 
Who knows? not me
Bbm              F 
We never lost control
C                F
Your'e face to face
Bbm                           A 
with the man who sold the world
    A                   Dm                  F             Dm
E|----------------------------------------------------------|
B|----------------------------------------------------------|
G|--2-2-2-0-2-3-2-0-----2-2-2-0-2-3-2-0-----2-2-2-0-2-3-2-0-|
D|----------------------------------------------------------|
A|----------------------------------------------------------|
E|----------------------------------------------------------|

C             F 
Who knows? not me
Bbm              F 
We never lost control
C                F
Your'e face to face
Bbm                           A 
with the man who sold the world

    A                   Dm                  F             Dm
E|----------------------------------------------------------|
B|----------------------------------------------------------|
G|--2-2-2-0-2-3-2-0-----2-2-2-0-2-3-2-0-----2-2-2-0-2-3-2-0-|
D|----------------------------------------------------------|
A|----------------------------------------------------------|
E|----------------------------------------------------------|

    A                   Dm                  F             Dm
E|----------------------------------------------------------|
B|----------------------------------------------------------|
G|--2-2-2-0-2-3-2-0-----2-2-2-0-2-3-2-0-----2-2-2-0-2-3-2-0-|
D|----------------------------------------------------------|
A|----------------------------------------------------------|
E|----------------------------------------------------------|

↓↓↑↑↓↑
comments powered by Disqus
Наверх