Аккорды Дайте танк (!) - Друг

Добавлено: @romashka
Дата добавления: 03 Января 2022г.
Рейтинг:
0.0
Просмотров: 36
Транспонировать - +
Вступление

1|-------------3-3-3-3----------------------------
2|-0-0-0-0----------------------------------------
3|--2-2-2-2^5---0-0-0-0(^5)----------------------- ×2
4|------------------------------------------------
5|------------------------------------------------
6|------------------------------------------------

1|-1-1-1-1------3-3-3-3---------------------------
2|--3-3-3-3^2-------------------------------------
3|---------------0-0-0-0(^2)----------------------
4|------------------------------------------------
5|------------------------------------------------
6|------------------------------------------------

соло после припева

1|--------------------------------------------------------
2|--------------------------------------------------------
3|--------------------------------------------------------
4|-----------------------------------2--------------------
5|--------3---------3-------------3-------(1.1)-----------
6|-5-3-0------5-3-0---0-----5-3-0--3-----------(00)-(55)--
                                                          -2-
5|-----------------------------------------------------3---------------
6|-5-3-0--17-15-12-(10)--5-3-0--17-15-12-(10)----5-3-0---3--(1717)-(1212)-(88)

6|---12--
5|--13---
4|-14----
Наверх