Аккорды Deadушки - Плюшевый ад

Добавлено: @romashka
Дата добавления: 27 Февраля 2022г.
Рейтинг:
0.0
Просмотров: 31
Транспонировать - +
Intro: 
E)-0----0----0----0----0----0------0----0-
B)------0---------2---------0----0------2-
G)------1---------2---------1-----------2-             
D)------2---------2---------2-----------2-
A)------2---------0---------2-----------0-
E)------0-------------------0-------------


   E
  Сон до полудня,
   A
  Полог из грез
  Вечером слезы,
  Но не всерьез.
  Ночью обед,
  Капля вина,
  Не беспокойся,
  Ты не одна.

  Погладь моих тигров,
  А белых коней
  Запри на замок,
  Плеткой побей.
  Выдерни перья
  Из крыльев моих,
  Нам не нужны
  Одни на двоих.

Dsus2                    C#m
  Плюшевый ад, плюшевый ад,
Dsus2                C#m
  Приятные мысли по полкам лежат.
  И ты забываешь, что он тесноват,
  Лишь только упал в плюшевый ад.

E
  Сон до полудня,
  Полог из грез
  Вечером слезы,
  Но не всерьез.
  Ночью обед,
  Капля вина,
  Не беспокойся,
  Ты не одна.

E)-0----0----0----0----0----0------0----0-
B)------0---------2---------0----0------2-
G)------1---------2---------1-----------2-             
D)------2---------2---------2-----------2-
A)------2---------0---------2-----------0-
E)------0-------------------0-------------


Dsus2 C#m x4
  
Dsus2                    C#m
  Плюшевый ад, плюшевый ад,
Dsus2                C#m
  Приятные мысли по полкам лежат.
  И ты забываешь, что он тесноват,
  Лишь только упал в плюшевый ад.

  Плюшевый ад, плюшевый ад,
  Приятные мысли по полкам лежат.
  И ты забываешь, что он тесноват,
  Лишь только упал в плюшевый ад. 
Наверх