Аккорды «Death»

Death
Death (англ. — Смерть) — дэт-метал группа, основанная в 1984 году в США и распавшаяся в 2001 году из-за смерти её основателя Чака Шульдинера 13 декабря 2001 года. Вокалист, гитарист и автор текстов Чак Шульдинер считается одним из первопроходцев в жанре дет-метала. Чак Шульдинер был единственным постоянным участником группы. История группы Создание группы. Демо-записи. Scream Bloody Gore, Leprosy. (1983 — 1988). Группа Death была одной из самых важных и влиятельных дет-метал групп, когда-либо… Читать полностью... Death (англ. — Смерть) — дэт-метал группа, основанная в 1984 году в США и распавшаяся в 2001 году из-за смерти её основателя Чака Шульдинера 13 декабря 2001 года. Вокалист, гитарист и автор текстов Чак Шульдинер считается одним из первопроходцев в жанре дет-метала. Чак Шульдинер был единственным постоянным участником группы. История группы Создание группы. Демо-записи. Scream Bloody Gore, Leprosy. (1983 — 1988). Группа Death была одной из самых важных и влиятельных дет-метал групп, когда-либо появлявшихся в Северной Америке. Группа была основана гитаристом и вокалистом Чаком Шульдинером, гитаристом Фредериком ДеЛилло (более известным как Рик Розз) и барабанщиком Барни Ли (также известным как Кэм Ли) под первоначальным названием «Mantas» (Mantas - это псевдоним Джеффа Данна, тогдашнего гитариста группы Venom) в 1983 году. Mantas искали вдохновение в творчестве групп Slayer и Venom. Трио сочиняло собственные песни, делая репетиционные записи и отправляя их различным перекупщикам кассет по всему миру. Из таких записей была составлена демо-запись из пяти песен, названная Death By Metal, выпущенная в середине 1984 года), которая утвердила Mantas как самого многообещающего претендента на дет-металический трон Америки, который в то время занимала группа Possessed из Сан-Франциско. Но группа не была так хорошо принята в собственном городе, Орландо, где группу всё еще не воспринимали всерьёз. Чак Шульдинер впоследствии вспоминает: Ситуация была практически невозможной. Много людей cмотрели на нас свысока. Нам доставалось много неприятностей от местных групп; все группы в округе считали нас полным дерьмом. В наших записях тогда было много шума [из-за самостоятельной записи], но мы играли брутальный дет-метал, и это было сложно понять людям. Такое отсутствие локальной поддержки группы было одной из основных причин постоянных внутренних конфликтов в группе. В конце концов, группа Mantas распалась в конце 1984 года. Пообещав продолжать сочинять музыку, которая была бы «быстрее и тяжелее», чем что-либо иное из его предыдущего творчества, Чак сразу же огласил свои планы по созданию новой группы и переезду либо в Тампу, либо в Калифорнию, когда ему исполнится восемнадцать лет (13 мая 1985). Новой группе он дал простое, лаконичное и в то же время отражающее суть название Death (англ. смерть), которое послужило названием также и одному из основных направлений метала — дет-металу. Чак считал, что переезд увеличит шансы состава группы быть постоянным. В течение нескольких недель Шульдинер уладил отношения с Риком Роззом и Кэмом Ли и начал сессии записи материала для легендарного демо Reign Of Terror. «Мы стали настолько тяжелее (после создания Death), что в это почти не верится» — заявлял Чак Шульдинер накануне записи этой ленты. Записанная за пять часов в октябре 1984 года в служебном помещении музыкального магазина, в котором хранилось звукозаписывающее оборудование, Reign Of Terror (в пер. с англ. — Царство террора) обошлась группе в 80 долларов, а сам материал так и не был должным образом микширован из-за нехватки времени. Релиз из шести композиций распространялся по всему миру через обширную сеть трейдеров. Группа стала известна как одна из самых экстремальных и брутальных в своём жанре. 30 декабря 1984 года Death выступила вместе с местной легендой — группой Nasty Savage в пабе «Rusty's Pub» и, записав это выступление, выпустила его как «официальную» концертную ленту, которая гораздо больше понравилась участникам группы по сравнению с самим Reign Of Terror. Через три месяца, 9 марта 1985 года, Чаку, Рику и Кэму наконец выпал шанс записать полноценное студийное демо, ленту из трёх песен, которая была создана в основном для привлечения внимания крупных звукозаписывающих компаний. Эта запись впоследствии получила название Infernal Death (в пер. с англ. — Адская смерть). Она является последней, сделанной в таком составе группы, так как отношения Чака Шульдинера с остальными участниками группы становились всё более холодными. Ему приглянулся басист из Мичигана по имени Скотт Карлсон, который тогда был участником группы Genocide, а потом Repulsion). Он прислал Шульдинеру запись своих импровизаций, которая его сильно впечатлила. Скотт переехал в Орландо и заменил Рика Розза в составе Death; с ним также приехал гитарист Genocide Мэтт Оливо. Оба они присоединились к Чаку Шульдинеру и Кэму Ли, но вскоре Ли покинул группу, и Death осталась без барабанщика. Группа потратила несколько месяцев в тщетных поисках ударника. В конечном счёте Карлсон и Оливо покинули группу и вернулись обратно в Мичиган; Чаку предстояло весьма сложное задание: подобрать совершенно новый состав группы. Для этого он переехал в Сан-Франциско, где встретился с бывшим барабанщиком D.R.I. Ериком Бречтом, и эта пара стала очередным составом группы Death. Их целью стало «играть быстрее, чем когда-либо». Но в конце концов Шульдинер понял, что скоростная игра препятствует мелодизму в музыке Death, что впоследствии стало её отличительным признаком. Он вернулся во Флориду снова без группы. В то время Чаку позвонили участники дет-метал-группы Slaughter из Торонто, которые начали записывать дебютный альбом Strappado. Они попросили Шульдинера переехать в Канаду, на что он согласился, так как был разочарован в местных музыкантах и обстановке. Чак переехал в Торонто в январе 1986 года и группа начала репетировать. Хоть Шульдинер поначалу обрадовался пребыванию в настоящей группе, он вскоре осознал, что не может подчиняться чьему-либо руководству, и вернулся во Флориду. В Сан-Франциско он встретился с многообещающим молодым ударником по имени Крис Рэйферт, и в апреле того же года дуэт отправился в студию для записи трёхпесенного демо Mutilation. Эта запись получила широкое распространение в кругах металхэдов и даже попала в руки представителей лейбла Combat Records, который предложил контракт на несколько альбомов вперёд. В июле 1986 года Чак и Крис во Флориде приступили к работе над дебютным альбомом, но по различным техническим причинам работа далеко не продвинулась и весь процесс пришлось перенести в голливудскую студию «Music Grinder Studios». Группа вместе с продюсером Рэнди Бёрнсом записала пластинку всего лишь за несколько дней, и Чак с Крисом вернулись домой, а Рэнди остался микшировать альбом. В это время дуэт установил контакт с молодым калифорнийским гитаристом по имени Джон Хэнд, который был приглашён в группу, причём он был так тепло принят, что его фотография была размещена на обложке выходящего альбома. Но это было решение, не дававшее покоя участникам Death: Хэнд ушёл из группы ещё до записи второго альбома, и, таким образом, ничего с ней не записал. Дебютный альбом Death, Scream Bloody Gore, вышел в мае 1987 года и тут же был принят с похвалами и одобрением фанатов, журналов. Пластинка была названа одним из самых важных релизов дет-метала всех времён. Как бы то ни было, Чак в очередной раз вернулся во Флориду, а Рэйферт остался в Сан-Франциско. Шульдинер решил присоединиться к флоридской группе Massacre, в которой играл Рик Розз. Это послужило началом настоящей концертной деятельности Death. Первое серьёзное выступление перед публикой имело место на метал-фестивале в Милуоки. Во время последовавшего успешного турне (концерты в рамках которого проходили, в основном, в клубах) Death сыграла три абсолютно новые песни («Born Dead», «Open Casket» и «Pull the Plug»), которые написал Чак Шульдинер. Эти песни представили Death как более взрослую группу, выбравшую своё направление. Брутальность (ставшая «торговой маркой» Death) этих композиций нисколько не уступала старому материалу. К апрелю 1988 года группа вернулась в студию «Morrisound» в Тампе, и под руководством Дэна Джонсона записала свой второй альбом, Leprosy, сильно опередивший своё время. Звучание альбома, несмотря на брутальность и тяжесть, было очень чистым. Новая пластинка, как и её предшественница, корнями уходила в Slayer, Venom, Hellhammer, но на ней были сильнее подчёркнуты мелодичные фрагменты, которые впоследствии стали «ядром» музыки Death. Неудивительно, что такая комбинация сразу же стала «хитом» в металическом андерграунде и главным источником вдохновения для сотен групп дет-метала конца 80-х (например, Entombed и Napalm Death, которые записали свою пластинку Harmony Corruption в той же студии «Morrisound», чтобы добиться такого же звучания, как и в Leprosy). Группа появилась на видео Ultimate Revenge II (концертная видео- и аудиозапись, на которой также присутствуют группы Morbid Angel и Forbidden) в октябре 1988 года, за чем последовало турне 1989 года. К концу этого года отношением между Чаком и Риком Роззом стали невыносимыми для Шульдинера, и расхождение путей обоих музыкантов стало неизбежным. Несмотря на то что состав группы вновь изменился, Death оставила неизгладимое впечатление у публики выпуском своих двух альбомов. Действительно, эти альбомы проложили дорогу сотням дет-металических групп, образованных в последующие годы, хоть и не сумевших превзойти или затмить важность и неимоверную тяжесть песен вроде «Pull the Plug». А то, что до сего времени многие из этих песен остались любимыми среди фанатов, говорит лишь о тонком мастерстве Death и её важности, причём не только на американской металической сцене, но и во всём мире, что группа вскоре и продемонстрировала. Последний состав: Чак Шульдинер — ритм- и ведущая гитара, вокал, основной автор песен (1984-2001) Ричард Кристи — барабаны (1996-2001) Шэннон Хэмм — гитары (1996-2001) Скотт Кленденин — бас (1996-2001) Бывшие участники: Вокал: Кэм Ли (Барни Ли) — барабаны, вокал (1984-1985) Луи Каррисалес — концертный вокал (1990) Гитара: Рик Розз (Фредерик ДеЛилло) (1984-1985, 1987-1989) Мэтт Оливио (1985) Джон Хэнд (1987) Альберт Гонсалес (1990) Джеймс Мерфи (1990) Вальтер Трахслер (1990) Пол Масвидал (1989, 1990-1992), сейчас в Cynic Энди ЛаРок (Адрерс Олхэйдж) (1993) Ральф Сантолла (1993) Крейг Лосисеро (1993) Бобби Келбл (1995) Бас: Скотт Карлсон (1985) Эрик Мид (1985) Терри Батлер (1987-1990)' Стив ДиДжорджио (1986, 1991, 1993) Скотт Карино (1991-1992) Келли Конлон (1995) Брайан Денсон (турне в поддержку Symbolic) Ударные: Кэм Ли (Барни Ли) (1984-1985) Эрик Брехт (1985) Крис Рэйферт (1986-1987), известен по Autopsy, Abscess Билл Эндрюс (1987-1990) Шон Райнерт (1991-1992), сейчас в Cynic Джин Хоглан (1993-1995) Крис Уильямс (1996) Дискография: 1984 — Death By Metal (Демо) 1984 — Reign Of Terror (Демо) 1985 — Infernal Death (Демо) 1985 — Rigor Mortis (Демо) 1985 — Back From The Dead (Демо) 1987 — Scream Bloody Gore 1988 — Leprosy 1990 — Spiritual Healing 1991 — Human 1993 — Individual Thought Patterns 1995 — Symbolic 1998 — The Sound of Perseverance 2001 — Live in L.A. Скрыть...
Популярные аккорды Death:
алфавиту | просмотрам | случайно
  • Riff A             (end of Riff A)
    |---------||-------------------------------||
    |---------||-------------------------------||
    |---------||----3-----6-----5--------------||
    |-5-4-----||-2--3--3--6--6--5------5-4-----||
    |-3-2-5-4-||-2--1--3--4--6--3--ph--3-2-5-4-||
    |-----3-2-||-0-----1-----4-----3~------3-2-||…
  • Zombie Riff(play four times, last time leave off E5)
    |----------------------------------------------------------------------|
    |-----------9-10-9-----------------------------------------------------|
    |-9----9-10--------10-9------------------------------------------------|…
  • Section A: 
    Clean guitar: 
    
    ---------------------------------------------------| 
    ---------------------------------------------------| 
    -----9--11---------------9--11--12--11--9----------| 
    |--------11--12--7---9-------11--12--7---9--10---9--7--12-11---|…
  • h  p
    E-----------------------------------------------12-13-12-12^13^12----12-------------------------
    B---------A.H----A.H----------------------------------------------15----15-13-12-------12---13--
    G-9~------9b10~--9~-------9-10-9----9-----------------------------------------------------------
    D--------------------------------12---12-10-9---------------------------------------------------
    A-----------------------------------------------------------------------------------------------
    E-----------------------------------------------------------------------------------------------
    
    cont.
    E----------------------------------------------------------------------------------------------------------|
    B-------------------10-13-12-10-12-10----------------------------10-13-12-10-12-10-------------------------|
    G-9-10-9----9-10-12-------------------12-10-9--9-10-9----9-10-12-------------------12-10-9----9---------9~-|
    D--------12-------------------------------------------12-----------------------------------12---12-10-9----|
    A----------------------------------------------------------------------------------------------------------|
    E----------------------------------------------------------------------------------------------------------|…
  • Tune Gtr to D
    
    
    Riff A
    |---------------------|------------------------|
    |---------------------|------------------------| 
    |---------------------|------------------------|Gtrs
    |---------------------|------------------------|I&II
    |---6-----9---7---6---|---6-----9---7---6------|
    |-5---5-7---8---8---7-|-5---5-7---8---8---7----|
    |
    |---------------------|------------------------|
    |---------------------|------------------------|…
  • intro:
    
    ||------h--h---p--h--h------h--h---p-----h----|| 
    ||--0--5--8--12--8--5---0--5--8--12--8--5-----||
    ||--------------------------------------------||
    ||--------------------------------------------||
    ||--------------------------------------------||
    ||--------------------------------------------||
    
    
    
    ||------h---h---p---h--h------h---h---p------h--||…
  • Tune down one whole step  
    
    
       Intro Gtr. 1 (play 8 times) 
    ------------------|| 
    ------------------|| 
    ------------------|| 
    ||-9------------9----------|-9------------------------|| 
    ||-7------8~----7-------8~-|-7------8~------5-----3---||…
  • Intro drums
    
    
      Riff 1 (play twice)
    F:-------------------------------------------------------|
    C:-------------------------------------------------------|
    G:------2------------------------------2-------3---------|
    D:--0-------0-------------------1-------------------3----|…
  • Tuning: D (every string down one step)
    
    |------------------------------------------------------------------|
    |------------------------------------------------------------------|
    |------------------------------------------------------------------|…
  • Tuning (low to high): DGCFAD
    
    
    Fig.1     
    |-------------------------------------------------|
    |-------------------------------------------------|
    |-------------------------------------------------|
    |-------------------------------------5b----------|
    |-------7-----5-5-7---------7-----5-7-------------|
    |-0-0-----0-----------0-0-----0-------------------|
    
    Fig.2
    |-------------------------------------------------|
    |-------------------------------------------------|
    |---------------------5-------5---7---7br---5-----|
    |---------------------5---7---5---7---7br---5---7-|
    |-------7-----5-5-7-------7---------------------7-|
    |-0-0-----0---------------------------------------|
    
    Fig.3
    |-------------------------------------------------|
    |-------------------------------------------------|
    |-------------------------------------------------|
    |-------------------------------------------------|
    |-------7-----5-5-7---------7----5-7-7-7-5-7-7-7--|
    |-0-0-----0-----------0-0-----0-------------------|
    
    Play…
  • Opening Riff 
    
    --/----------------/-----------------/----------------/-------------------/----------------/----------------
    --/----------------/-----------------/----------------/-------------------/----------------/-----------------
    --/----------------/-----------------/----------------/-------------------/----------------/---5--5-7-7b-5-7-
    --/----------------/---------------5-/----------------/---5--5-7-7b--5-7--/----------------/---5--5-7-7b-5-7-
    --/-------7----5h7-/---7--------5-7--/-------7----5h7-/---7---------------/-------7----5h7-/---7-------------
    --/-0--0----0------/-0---0--0--------/-0--0----0------/-0-----------------/-0--0----0------/-0---------------…
  • *Intro/Verse*
    F]---------------------------------------------------------------
    C]--------------------3-/-4--3-------------------5-/-6-/-5------
    G]--------------------3-/-4--3-------------------5-/-6-/-5------
    D]--0-0-0-0-0-0-0-0--1-/-2--1--0-0-0-0-0-0-0-0--3-/-4-/-3------
    
    
    F]----------------------------------------------3--3-------------
    C]--------------------3-/-4--3-----------------3--3-------------
    G]--------------------3-/-4--3-----------------1--1-------------
    D]---0-0-0-0-0-0-0-0--1-/-2--1--3-3-3-3-3-3-3-------------------
    
    
    
    *Pre-Chorus*
    F]-------------------------------------------------------------7-
    C]-------------------------------------------------------------7-
    G]-4-4-4-4-4-4-4-4--3-3-3-3-3-3-3-3--2-2-2-2-2-2-2-2--1-1-1-1--5-
    D]---------------------------------------------------------------…
  • Tuning :
     
     (6) = D       (3) = F
     (5) = G       (2) = A
     (4) = C       (1) = d
    
    
    Tempo = 132
    
    
    SOLO 1:
    ->(3:00-3:22)
    
    d)|--19-20-24-20-19-24-20-19-------------------19-20-24-20-19-24-20-19-------------------------|
    A)|--------------------------19-20-19-20-19-20-------------------------19-20-19-20-19-20-19-20-|
    F)|--------------------------------------------------------------------------------------------|
    C)|--------------------------------------------------------------------------------------------|…
  • Opening Riff
    |-------------------------------------------------|
    |-------------------------------------------------|
    |-4-----------4-----------5-----------2-----------|
    |---2-2-2-2-2---2-----------3-3-3-3-3---2-5-5-5-5-|
    |-----0-0-0-0-----2-2-2-2-----1-1-1-1-----3-3-3-3-|
    |-----------------0-0-0-0-------------------------|…
  • Riff A
    |-----------------------------------------------------------------|
    |-----------------------------------------------------------------|
    |-----------------------------------------------------------------|
    |-----------------------------------------------------------------|
    |-4-------------------------------4---------------5---------------|
    |-2-2-2-2-2-2-2-2-5-2-2-2-2-2-2-2---2-2-2-2-2-2-2---2-2-2-2-2-2-2-|
    |…
  • Riff A 
    -------------------------------| 
    --------------5~-----77-5---5~-| 
    |-------4-5-4~--------4-5-----5-------7----|GTR I 
    |-7--77---------6--77---------5------------| & II 
    |-7-------------6-------------3------------|…
  • Tuning goes D, G, C, F, A, D
    
    
    INTRO (throughout intro light palm muting on both guitars)
    |-----------------------------------------|
    |-----------------------------------------|          
    |---10-11----10~----10-11----10-11-10-----|…
  • ||-----7-----6-----7-----6-------7-----6----7------6-------------------
    ||---5---8-7-----5---8-7---6---5---8-7----5---8-7----6----------------- 
    ||---------------------------------------------------------------------
    ||---------------------------------------------------------------------
    ||---------------------------------------------------------------------
    ||---------------------------------------------------------------------
    
    
    ||-----------------------------------------(12)------------
    ||---------------------------------------------------------------------
    ||---------------------------9----------------------------
    ||---------------------------------------------------------------------
    ||--------------7------------------------------------------
    ||-0-------------------------------------------------------
    
    ||---------------------------------------------------------------------
    ||-------------------------------12h13p12------------------------------
    ||----------7h9p7---------9-11-12----------12-11-----------------------
    ||--9-10-12-------10-9-------------------------------------------------
    ||---------------------------------------------------------------------
    ||---------------------------------------------------------------------
    
    ||---------------------------------------------------------------------
    ||----------11-12-13----------12-14-15----------14-15-17---------------
    ||-11-12-13----------12-14-15----------14-15-17----------15-17-19------
    ||---------------------------------------------------------------------
    ||---------------------------------------------------------------------
    ||---------------------------------------------------------------------…
  • Tuning (1:D 2:A 3:F 4:C 5:G 6:D)
    
    
    Start the song with a pick scrape
    
    
    Riff A    
    |------------------------|------------------------|
    |------------------------|------------------------|
    |------------------------|------------------------|
    |-------------------3~---|-------------------3~---|
    |---------------3-2------|---------------3-2------|
    |-0-0-0-0-0-0-3----------|-0-0-0-0-0-0-3----------|…
  • Tuning: D (One full step down)
    
    
    Intro & verse:
    
    |---------------------------------------------------------------------|
    |---------------------------------------------------------------------|
    |---------------------------------------------------------------------|
    |---------------------------------------------------------------------|…
  • Tune down to D 
    
    
    Intro: 
               Gtr I 
    E|------||-----10-----------10---------|-----10-----------10---------| 
    B|------||---8-----8--10-11----11-10---|---8-----8--10-11----11-10---| 
    G|------||o----------------------------------------------|…
  • Tuning goes(1:D 2:A 3:F 4:C 5:G 6:D)
    
    
    INTRO
    |-----------|---------------|-----------|----------------|
    |-----------|---------------|-----------|----------------|
    |-----------|---------------|-----------|----------------|…
  • 3x
    D||------------------------------------|-------------------------------------||
    A||------------------------------------|-------------------------------------||
    F||*--2--------------------------------|------------------------------------*||
    C||*--2--------------------------------|--3----------------5----------------*||
    G||---0--------------------------------|--3----------------5-----------------||
    D||------------------------------------|--1----------------3-----------------||…
  • Intro: (lead is given, rhythm is in parens)
    
    E -------------------------|  ------------------
    B -------------------------|  ------------------
    G -------------------------|  ------------------
    D -5(5)-4(4)--5-4----------|3…
  • Tuning: D, tune every string down one step
    
    * = Palm Mute 
    t = Tap
    p = Pull
    
    Riff A (play 2 times)                    -|
    |----------------|--------------------|   |
    |----------------|--------------------|   |
    |----------------|5--------4----------|…
  • [Opening Riff]
    [--------------|----------------------------------|---------------------]
    [--------------|----------------------------------|---------------------]
    [*-------------|----------------------------------|--------------------*]GTR
    [*-----7-10~---|----------------------------------|-----7-9--10-9------*]…
  • riff: 1
    
    ||------------------------------------------------------||
    ||------------------------------------------------------||
    ||------------------------------------------------------||
    ||------------------------------------------------------||
    ||---------------------4-7-7--------------7-8-8-5-6-6-3-||
    ||-000000000000000000004-5-5333333333333335-6-6-3-4-4-1-||…
  • Tune Gtr to D
    |-----------------------------------------------------------------|
    |-----------------------------------------------------------------|
    |-----------------------------------------------------------------|
    |-----------------------------------------------------------------|…
  • Opening Riff
    |-------------|------------|-------------|-------------|
    |-------------|------------|-------------|-------------|
    |-------7-8~--|-12-11------|-------7-8~--|-7---7-------| 
    GTR I
    |-5-6-8-------|-------13~--|-5-6-8-------|---9---9-8~--|
    |-------------|------------|-------------|-------------|
    |-------------|------------|-------------|-------------|
    |…
  • Tune down to DGCFAD (one step down) 
    
            b bend          r release        
            / slide up       slide down 
            h hammer-on     p pull-off       
            . palm muting   a.h. artificial (pinched) harmonic 
    
    
    Riff…
  • RIFF A:
    e:------------------------------------------------------|
    b:------------------------------------------------------|
    g:------------------------------------------------------|
    D:------------------------------------------------------|
    A:---5---------6-----------------5----------------------|
    E:-----444444----444444-7-444444---467------------------|…
  • Tune to D(every string down 1 step)
     
     Riff 1  Play 4 Times
    |------------------------------------------------------------------|
    |------------------------------------------------------------------|GTRS
    |------------------------------------------------------------------|1&2
    |-----6------------------------------------------------------------|
    |---4---4----------------------------------4/5-4-------------------|
    |-4-------33333333333333336666666666666666-2/3-2-2222222222222222--|…
Наверх