Аккорды Deep Purple - Sail Away

Добавлено: @romashka
Дата добавления: 20 Октября 2020г.
Рейтинг:
0.0
Просмотров: 19
Транспонировать - +
Рифф 1:
||-------------------------------------------------------------------------
||-------------------------------------------------------------------------
||-------------------------------------------------------------------------
||-------------------------------------------------------------------------
||--------7---10---7------7---------5h7-------7---10---7---------5---------
||----0-----------------0------5h7----------0-----------------5h7------3---
end/продолжение Рифф 1
||----------------------------------------------------------------------------
||----------------------------------------------------------------------------
||----------------------------------------------------------------------------
||--------------------------------------------------------------7b8r7--5------
||--------7---10---7------7---------5h7-------7---10---7-----------------5----
||----0-----------------0------5h7----------0-----------------------------7---

Рифф 2:
||-------------------------------------------------------------------------
||-------------------------------------------------------------------------
||-------------------------------------------------------------------------
||-------------------------------------------------------------------------
||--------7---10---7------7---------5h7-------7---10---7---------5---------
||----0-----------------0------5h7----------0-----------------5h7------3---
end/продолжение Рифф 2
||------------------------------------------------------------------------
||------------------------------------------------------------------------
||------------------------------------------------------------------------
||------------------------------------------------------------------------
||--------7---10---7------7---------5h7-------7---10---7------------------
||----0-----------------0------5h7----------0-----------------7---5---3---

Intro/проигрыш:
  Рифф1
  Рифф2


Куплет 1:

4x Рифф2:
     If you're driftin' on an empty ocean
     with no wind to fill your sail,
     the future, your horizon,
     it's like searchin' for the Holy Grain.
     You feel there's no tomorrow
     as you look into the water below
     It's only your reflection
     and you still ain't got no place to go.

Припев:

Рифф3:
||-------------------------------------------------------------------
||-------------------------------------------------------------------
||----4----------2---------------------4---------2-------------------
||----4----------2----------5----------4-------- 2----------5-------
||----2----------0----------5----------2---------0----------5-------
||----------------------------3--------------------------------3----
     Time    -   will   -   show  -  When, -  I don't - - -  know 


Рифф4:
||---------------------------------------------------------
||----------------------------------------------------------
||---------------------------------------------------------
||---------7-----7-----------------------------------------
||-------7------7------7----10----7------------------------
||----5-------5------0-----------------5---7---5---3---0---


Рифф5:
||---------------------------------------
||---------------------------------------
||---------------------------------------
||--------------2---------4-------------
||----5-------- 0---------2-------------
||----3---------------------------------

 3x Рифф4:
    Sail away tomorrow,
    sailin' far away
    To find it steal or borrow

  Рифф5:
    I'll be there someday yea-yea-yeah yea-yea-yeah.

Рифф1

Куплет 2:

  4x Рифф2:
     Oh, woman, I keep running
     to sing the same old song
     The story's been told, now I'm gettin' old.
     Tell me ,where do I belong?
     Feel like I'm goin' to surrender,
     Hard times I've had enough.
     If I could find a place to hide my face,
     I believe, I could get back up.

Припев:

  Рифф3:
    Time will show,
    when, I don't know.

  3x Рифф4:
    Sail away tomorrow,
    sailin' far away
    To find it steal or borrow

  Рифф5:
    I'll be there someday yea-yea-yeah yea-yea-yeah.

//> Импровизация по гармонии...

2x Припев:

  Рифф3:
    Time will show,
    when, I don't know.

  3x Рифф4:
    Sail away tomorrow,
    sailin' far away
    To find it steal or borrow

  Рифф5:
    I'll be there someday yea-yea-yeah yea-yea-yeah.

Coda:
Рифф2 
till end / до конца...
Наверх