Аккорды Def Leppard - Love bites

Добавлено: @romashka
Дата добавления: 24 Января 2022г.
Рейтинг:
0.0
Просмотров: 25
Транспонировать - +
Intro 1:

E|-----------|-----------|--------------|-----------------|
B|--------6--|-----------|-----------6--|-----------------|
G|--------5--|--------3--|--------3-----|-----------0-----| 
D|-----7-----|--------3--|-----5--------|--------3--------|  
A|--5--------|-----5-----|--3-----------|-----3--------3--|
E|-----------|--3--------|--------------|--1--------------|


                Dm
  When you make love,
E|-------------------------|
B|----------------------6--|
G|----------------------5--|
D|-------------------7-----| 
A|----------------5--------|
E|-------------------------|


                       Gm7
  Do you look in the mirror?
E|--------------------------------|
B|--------------------------------|
G|-----------------------------3--| 
D|-----------------------------3--|
A|--------------------------5-----|
E|-----------------------3--------|


                   C
  Who do you think of?
E|-----------------------------|
B|--------------------------6--|
G|-----------------------3-----|
D|--------------------5--------|
A|------------------3----------|
E|-----------------------------|


                    F
  Does he look like me?
E|-----------------------------------|
B|-----------------------------------|
G|-----------------------------0-----| 
D|--------------------------3--------|  
A|-----------------------3--------3--|
E|--------------------1--------------|


               Dm
  Do you tell lies
E|--------------------------|
B|-----------------------6--|
G|-----------------------5--|
D|--------------------7-----| 
A|-----------------5--------|
E|--------------------------|


                      Gm7
  And say that it's forever?
E|------------------------------|
B|------------------------------|
G|---------------------------3--| 
D|---------------------------3--|
A|------------------------5-----|
E|---------------------3--------|


                 C
  Do you think twice
E|----------------------------|
B|-------------------------6--|
G|----------------------3-----|
D|-------------------5--------|
A|----------------3-----------|
E|----------------------------|


                   F
  Or just touch'n'see?
E|----------------------------------|
B|----------------------------------|
G|----------------------------0-----| 
D|-------------------------3--------|  
A|----------------------3--------3--|
E|-------------------1--------------|

    
  Ooh babe
E|-------------|
B|-------------|
G|----------7--|
D|----------7--| 
A|----------5--|
E|-------------|


  Ooh yeah
E|---------|
B|-----10--|
G|-----10--|
D|-----10--| 
A|------8--|
E|---------|


                Dm
  When you're alone,
E|-----------------------|
B|--------------------6--|
G|--------------------5--|
D|-----------------7-----| 
A|--------------5--------|
E|-----------------------|


             Gm7
  Do you let go?
E|----------------------|
B|----------------------|
G|-------------------3--| 
D|-------------------3--|
A|----------------5-----|
E|-------------3--------|


                         C
  Are you wild and willing
E|--------------------------------|
B|-----------------------------6--|
G|--------------------------3-----|
D|-----------------------5--------|
A|--------------------3-----------|
E|--------------------------------|


                      F
  Or is it just for show?
E|---------------------------------------|
B|---------------------------------------|
G|---------------------------------0-----| 
D|------------------------------3--------|  
A|---------------------------3--------3--|
E|------------------------1--------------|


Ooh come on!


Eb                                 Ab
  I don't wanna touch you too much baby
Fm                                        Bb
  'Cos making love to you might drive me crazy
Ab Eb                                          Ab
     I know you think that love is the way you make it
G5 Fm                                              Bb
     So I don't wanna be there when you decide to break it

No!

        Cm           Ab
  Love bites, love bleeds
Fm                 Bb       
  It's bringin' me to my knees
        Cm          Ab
  Love lives, love dies
Fm            Bb
  It's no surprise
        Cm          Ab 
  Love begs, love pleads
Fm             Bb
  It's what I need.



Intro 2:

E|-----------------|-----------|---------------------|----------------|
B|--6--5-----------|-----------|--------6---------5--|----------------|
G|--5-----5-----7--|--------3--|------3--------------|----------0-----|
D|-----------7-----|--------3--|----5----------5-----|--------3-------|
A|-----------------|-----5-----|--3---------3--------|-----3-------3--|
E|-----------------|--3--------|---------------------|--1-------------|



                Dm
  When I'm with you,
E|--------------------------------|
B|-----------------6--5-----------|
G|-----------------5-----5-----7--|
D|--------------------------7-----| 
A|--------------------------------|
E|--------------------------------|


                    Gm7
  Are you somewhere else?
E|------------------------------|
B|------------------------------|
G|---------------------------3--| 
D|---------------------------3--|
A|------------------------5-----|
E|---------------------3--------|


                 C
  am I gettin' thru
E|--------------------------------------|
B|-------------------------6---------5--|
G|----------------------3---------------|
D|-------------------5------------5-----|
A|----------------3------------3--------|
E|--------------------------------------|


                        F
  Or do you please yourself?
E|--------------------------------------|
B|--------------------------------------|
G|--------------------------------0-----| 
D|-----------------------------3--------|  
A|--------------------------3--------3--|
E|-----------------------1--------------|


                Dm
  When you wake up,
E|--------------------------------|
B|-----------------6--5-----------|
G|-----------------5-----5-----7--|
D|--------------------------7-----| 
A|--------------------------------|
E|--------------------------------|


                Gm7
  Will you walk out?
E|-------------------------|
B|-------------------------|
G|----------------------3--| 
D|----------------------3--|
A|-------------------5-----|
E|----------------3--------|


               C
  It can't be love
E|--------------------------------------|
B|-------------------------6---------5--|
G|----------------------3---------------|
D|-------------------5------------5-----|
A|----------------3------------3--------|
E|--------------------------------------|


                    F
  If you throw it about.
E|------------------------------------|
B|------------------------------------|
G|------------------------------0-----| 
D|---------------------------3--------|  
A|------------------------3--------3--|
E|---------------------1--------------|


Ooh babe!


Eb                                 Ab
  I don't wanna touch you too much baby
Fm                                        Bb
  'Cos making love to you might drive me crazy


        Cm           Ab
  Love bites, love bleeds
Fm                 Bb       
  It's bringin' me to my knees
        Cm          Ab
  Love lives, love dies
Fm            Bb
  It's no surprise
        Cm          Ab 
  Love begs, love pleads
Fm             Bb
  It's what I need. 
Наверх