Аккорды Demons & Wizards - Fiddler on the Green

Добавлено: @romashka
Дата добавления: 06 Апреля 2018г.
Рейтинг:
0.0
Просмотров: 8
Транспонировать - +
tune down half step
1) INTRO (Clean Guitar):

eb|------------------------------------------------------
Bb|---------1-----0-----0-------------1-----3-----0------
F#|-------2---2-----2-----2---------2---2-----2-----2----
C#|-----2-------2-----2-----2-----2-------2-----2-----2--
Ab|---0-------------------------0------------------------
Eb|------------------------------------------------------


eb|----------------------------------------------------------
Bb|-------1-----0-----0-------------1-----3-----1------------
F#|-----2---2-----2-----2---------0---0-----0-----0----------
C#|---2-------2-----2-----2-----2-------2-----2-----2--------
Ab|-0-------------------------3------------------------------
Eb|----------------------------------------------------------

     Sad voices ....


2) VERSE - CHORDS (Clean Guitar):
   [00:32]
[written for standard tuning]
e|-------   -------   -------|
B|---1---   ---1---   ---3---|
G|---2---   ---0---   ---0---|
D|---2---   ---2---   ---2---|
A|---0---   ---3---   ---3---|
E|-------   -------   -------|
     Am        C         Cadd9

     Wasn't there ....


e|-------   ---2---3---|
B|---1---   ---3---3---|
G|---2---   ---2---2---|
D|---2---   -----------|
A|---0---   -----------|
E|-------   -----------|
     Am        D

     Would you mind
....
....
....
     If I take you

3) SOLO / MELODY (Clean Guitar):
   [01:44]
                 x2
e|---------------------------------|
B|---------------------------------|
G|--1----1--3--4-------4--3---4-3--|
D|----------------4----------------|
A|---------------------------------|
E|---------------------------------|

e|-----------------------------------------|---------------------------------|

B|-------4-4-4-4-4------4------------------|-------4-4-4-4-4------4----------|

G|--1--------------4-------3---4-3---------|--1--------------4-------3-------|

D|-----------------------------------------|---------------------------------|

A|-----------------------------------------|---------------------------------|

E|-----------------------------------------|---------------------------------|

e|---------------------------------------------------------------------------|

B|--9----9--11--12--11--------9-7----75----53----31-----------------------|

G|--------------------------------9------7------5------3-1-------------------|

D|---------------------------------------------------------------------------|

A|---------------------------------------------------------------------------|

E|---------------------------------------------------------------------------|

4) INTRO (Clean Guitar):
   [02:25]

e|---------------------------------------------------------------------------|

B|---------1---0---1-------1---3---0-------1---0---1-------1---3---0---------|

G|-------2---2---2-------2---2---2-------2---2---2-------0---0---0-----------|

D|-----2---------------2---------------2---------------2---------------------|

A|---0---------------0---------------0---------------3-----------------------|

E|---------------------------------------------------------------------------|

     Am   Am        Am      C

     To be with you x4

     The sun ....

5) VERSE - CHORDS (Clean Guitar):
   [02:58]

     Isn't it a shame ......

6) VERSE (Distortion Guitar):
   [03:35]
                 x4
e|-------------------------------------|    |----------------|
B|-------------------------------------|    |----------------|
G|---2-----2--4--5--------5--4--54----|    |----9----11-----|
D|---2-----2--4--5--5-----5--4--54----|    |----9----11-----|
A|---0-----0--2--3--5-----3--2--32----|    |----7-----9-----|
E|------------------3------------------|    |----------------|
     A     A  B  C  G     C  B  C B              E    F#

     Take my hand
..........

   [04:17]
e|-------------------------------------|    |----------------|
B|-------------------------------------|    |----------------|
G|---2-----5--4--5--------5--4---------|    |----9----11-----|
D|---2-----5--4--5--5-----5--4---------|    |----9----11-----|
A|---0-----3--2--3--5-----3--2---------|    |----7-----9-----|
E|------------------3------------------|    |----------------|
     A     C  B  C  G     C  B                   E    F#
           ·  ·  ·

7) Repeat SOLO with distortion guitar till the end...
comments powered by Disqus
Наверх