Аккорды Demons & Wizards - Path of Glory

Добавлено: @romashka
Дата добавления: 06 Апреля 2018г.
Рейтинг:
0.0
Просмотров: 35
Транспонировать - +
Bass (табулатура)
Tune guitar EbAbDbGbBbDb



      W                   W                   W                 
F#||-------------------|-------------------|-------------------|
C#||-------------------|-------------------|-------------------|
G#||-------------------|-------------------|-------------------|
C#||-------------------|-------------------|-------------------|


  W                   W                   W                   W                 
-------------------|-------------------|-------------------|-------------------|
-------------------|-------------------|-------------------|-------------------|
-------------------|-------------------|-------------------|-------------------|
-------------------|-------------------|-------------------|-------------------|


  W                   W                   W                   W                 
-------------------|-------------------|-------------------|-------------------|
-------------------|-------------------|-------------------|-------------------|
-------------------|-------------------|-------------------|-------------------|
-------------------|-------------------|-------------------|-------------------|


  W                   W                   W                   W                 
-------------------|-------------------|-------------------|-------------------|
-------------------|-------------------|-------------------|-------------------|
-------------------|-------------------|-------------------|-------------------|
-------------------|-------------------|-------------------|-------------------|


  W                   W                   W                   W                 
-------------------|-------------------|-------------------|-------------------|
-------------------|-------------------|-------------------|-------------------|
-------------------|-------------------|-------------------|-------------------|
-------------------|-------------------|-------------------|-------------------|


  W                   W                   W                 
-------------------|-------------------|-------------------|
-------------------|-------------------|-------------------|
-------------------|-------------------|-------------------|
-------------------|-------------------|-------------------|


  S S S S E.  S S S S S Q       E  S S E  S S  E   S  S  E  S S  
-----------------------------|----------------------------------|
-----------------------------|----------------------------------|
--3-5-----5---5-3-5-----5----|--8--8-8-8--8-8-10--10-10-10--7-7-|
------0-0-----------0-0------|----------------------------------|


  S S S S E.  S S S S S Q       E  S S E  S S  E   S  S  E  S S  
-----------------------------|----------------------------------|
-----------------------------|----------------------------------|
--3-5-----5---5-3-5-----5----|--8--8-8-8--8-8-10--10-10-10--7-7-|
------0-0-----------0-0------|----------------------------------|


  S S S S E.  S S S S S Q       E  S S E  S S  E   S  S  E  S S  
-----------------------------|----------------------------------|
-----------------------------|----------------------------------|
--3-5-----5---5-3-5-----5----|--8--8-8-8--8-8-10--10-10-10--7-7-|
------0-0-----------0-0------|----------------------------------|


  S S S S E.  S S S S S Q       E  S S E  S S  E   S  S  E  S S  
-----------------------------|----------------------------------|
-----------------------------|----------------------------------|
--3-5-----5---5-3-5-----5----|--8--8-8-8--8-8-10--10-10-10--7-7-|
------0-0-----------0-0------|----------------------------------|


  W                   H        Q    S E  S    W                 
-------------------|-----------------------|-------------------|
-------------------|-----------------------|-------------------|
--5----------------|-----------------------|--5----------------|
--0----------------|--3--------5----2-5--2-|-------------------|


  H        Q    S E  S    W                   H        Q    S E  S  
-----------------------|-------------------|-----------------------|
-----------------------|-------------------|-----------------------|
-----------------------|--5----------------|-----------------------|
--3--------5----2-5--2-|-------------------|--3--------5----2-5--2-|


  W                   H        Q    S E  S    W                 
-------------------|-----------------------|-------------------|
-------------------|-----------------------|-------------------|
--5----------------|-----------------------|--5----------------|
-------------------|--3--------5----2-5--2-|-------------------|


  H        H           W                   H        H         
--------------------|-------------------|--------------------|
--------------------|-------------------|--------------------|
--------------------|--5----------------|--------------------|
--3--------5--------|-------------------|--3--------5--------|


  W                   H        H           W                 
-------------------|--------------------|-------------------|
-------------------|--------------------|-------------------|
--5----------------|--------------------|--5----------------|
-------------------|--3--------5--------|-------------------|


  H        H           W                   H        H         
--------------------|-------------------|--------------------|
--------------------|-------------------|--------------------|
--------------------|--5----------------|--------------------|
--3--------5--------|-------------------|--3--------5--------|


  S S S S E.  S S S S S Q       E  S S E  S S  E   S  S  E  S S  
-----------------------------|----------------------------------|
-----------------------------|----------------------------------|
--3-5-----5---5-3-5-----5----|--8--8-8-8--8-8-10--10-10-10--7-7-|
------0-0-----------0-0------|----------------------------------|


  S S S S E.  S S S S S Q       E  S S E  S S  E   S  S  E  S S  
-----------------------------|----------------------------------|
-----------------------------|----------------------------------|
--3-5-----5---5-3-5-----5----|--8--8-8-8--8-8-10--10-10-10--7-7-|
------0-0-----------0-0------|----------------------------------|


  S S S S E.  S S S S S Q       E  S S E  S S  E   S  S  E  S S  
-----------------------------|----------------------------------|
-----------------------------|----------------------------------|
--3-5-----5---5-3-5-----5----|--8--8-8-8--8-8-10--10-10-10--7-7-|
------0-0-----------0-0------|----------------------------------|


  S S S S E.  S S S S S Q       E  S S E  S S  E   S  S  E  S S  
-----------------------------|----------------------------------|
-----------------------------|----------------------------------|
--3-5-----5---5-3-5-----5----|--8--8-8-8--8-8-10--10-10-10--7-7-|
------0-0-----------0-0------|----------------------------------|


  S S S S E.  S S S S S Q       E  S S E  S S  E   S  S  E  S S  
-----------------------------|----------------------------------|
-----------------------------|----------------------------------|
--3-5-----5---5-3-5-----5----|--8--8-8-8--8-8-10--10-10-10--7-7-|
------0-0-----------0-0------|----------------------------------|


  S S S S S S S S S S S S S S S S    S S S S S S S S  S  S  S  S  S  S S S  
----------------------------------|----------------------------------------|
----------------------------------|----------------------------------------|
--3-5-----8-5-5-5-3-5-----8-5-5-5-|--8-8-8-8-8-8-8-8-10-10-10-10-10-10-7-7-|
------0-0-------------0-0---------|----------------------------------------|


  S S S S S S S S S S S S S S S S  
----------------------------------|
----------------------------------|
--3-5-----8-5-5-5-3-5-----8-5-5-5-|
------0-0-------------0-0---------|


   S  S  S  S  S  S  S  S  S  S  S  S  S  S S S  
------------------------------------------------|
------------------------------------------------|
--10-10-10-10-10-10-10-10-12-12-12-12-12-12-7-7-|
------------------------------------------------|


  S S S S S S S S S S S S S S S S    S S S S S S S S  S  S  S  S  S  S S S  
----------------------------------|----------------------------------------|
----------------------------------|----------------------------------------|
--3-5-----8-5-5-5-3-5-----8-5-5-5-|--8-8-8-8-8-8-8-8-10-10-10-10-10-10-7-7-|
------0-0-------------0-0---------|----------------------------------------|


  S S S S S S S S S S S S S S S S  
----------------------------------|
----------------------------------|
--3-5-----8-5-5-5-3-5-----8-5-5-5-|
------0-0-------------0-0---------|


   S  S  S  S  S  S  S  S  S  S  S  S  S  S S S    H        E  E  S S S S  
------------------------------------------------|-------------------------|
------------------------------------------------|--------------3--3-2---2-|
--10-10-10-10-10-10-10-10-12-12-12-12-12-12-7-7-|--5--------L---------3---|
------------------------------------------------|-------------------------|


  H        E  S S S S S S    H        E  E  S S S S    H        E  S S S S S S  
--------------------------|-------------------------|--------------------------|
--------------3---3-5---2-|--------------3--3-2---2-|--------------3---3-5---2-|
--3--------L--------------|--5--------L---------3---|--3--------L--------------|
--------------------------|-------------------------|--------------------------|


  E.  E.  E.  E.  S S S S    S S S S E.  S S S S S Q     
--------------------------|-----------------------------|
--------------------------|-----------------------------|
--3---1---0---------------|--3-5-----5---5-3-5-----5----|
--------------5---7-5-3-2-|------0-0-----------0-0------|


  E  S S E  S S  E   S  S  E  S S    S S S S E.  S S S S S Q     
----------------------------------|-----------------------------|
----------------------------------|-----------------------------|
--8--8-8-8--8-8-10--10-10-10--7-7-|--3-5-----5---5-3-5-----5----|
----------------------------------|------0-0-----------0-0------|


  E  S S E  S S  E   S  S  E  S S    S S S S E.  S S S S S Q     
----------------------------------|-----------------------------|
----------------------------------|-----------------------------|
--8--8-8-8--8-8-10--10-10-10--7-7-|--3-5-----5---5-3-5-----5----|
----------------------------------|------0-0-----------0-0------|


  E  S S E  S S  E   S  S  E  S S    S S S S E.  S S S S S Q     
----------------------------------|-----------------------------|
----------------------------------|-----------------------------|
--8--8-8-8--8-8-10--10-10-10--7-7-|--3-5-----5---5-3-5-----5----|
----------------------------------|------0-0-----------0-0------|


  E  S S E  S S  E   S  S  E  S S    S S S S E.  S S S S S Q     
----------------------------------|-----------------------------|
----------------------------------|-----------------------------|
--8--8-8-8--8-8-10--10-10-10--7-7-|--3-5-----5---5-3-5-----5----|
----------------------------------|------0-0-----------0-0------|


  E  S S E  S S  E   S  S  E  S S    S S S S E.  S S S S S Q     
----------------------------------|-----------------------------|
----------------------------------|-----------------------------|
--8--8-8-8--8-8-10--10-10-10--7-7-|--3-5-----5---5-3-5-----5----|
----------------------------------|------0-0-----------0-0------|


  E  S S E  S S  E   S  S  E  S S    S S S S E.  S S S S S Q     
----------------------------------|-----------------------------|
----------------------------------|-----------------------------|
--8--8-8-8--8-8-10--10-10-10--7-7-|--3-5-----5---5-3-5-----5----|
----------------------------------|------0-0-----------0-0------|


  E  S S E  S S  E   S  S  E  S S    H        E  E  S S S S  
----------------------------------|-------------------------|
----------------------------------|--------------3--3-2---2-|
--8--8-8-8--8-8-10--10-10-10--7-7-|--5--------L---------3---|
----------------------------------|-------------------------|


  H        E  S S S S S S    H        E  E  S S S S    H        E  S S S S S S  
--------------------------|-------------------------|--------------------------|
--------------3---3-5---2-|--------------3--3-2---2-|--------------3---3-5---2-|
--3--------L--------------|--5--------L---------3---|--3--------L--------------|
--------------------------|-------------------------|--------------------------|


  E.  E.  E.  E.  S S S S    S S Q.     H          
--------------------------|----------------------||
--------------------------|----------------------||
--3---1-------------------|----------------------||
----------7---5---7-5-3-2-|--2-3-3---------------||




Duration Legend
---------------
W - whole
H - half
Q - quarter
E - 8th
S - 16th
T - 32nd
X - 64th
. - note dotted
|-n-|  - n-tuplets


Tablature Legend
----------------
L - tied note
x - dead note
g - grace note
(n) - ghost note
> - accentuded note
NH - natural harmonic
AH - artificial harmonic
TH - tapped harmonic
SH - semi harmonic
PH - pitch harmonic
h - hammer on
p - pull off
b - bend
br - bendRelease
pb - preBend
pbr - preBendRelease
brb - bendReleaseBend
\n/ - tremolo bar dip
\n - tremolo bar dive
-/n - tremolo bar Release up
/n\ - tremolo bar inverted dip
/n - tremolo bar return
-\n - tremolo bar Release down
S - shift slide
s - legato slide
/ -  slide into from below or out of upwards
\ -  slide into from above or out of downwards
~ - vibrato
W - wide vibrato
tr - trill
TP - tremolo picking
T - tapping
S - slap
P - pop
< - fade in
^ - brush up
v - brush down
comments powered by Disqus
Наверх