Аккорды Детидетей - Рассказ

Добавлено: @romashka
Дата добавления: 26 Января 2018г.
Рейтинг:
0.0
Просмотров: 268
Транспонировать - +
Вступление: 
E ||-------|--2---------------------------|---------|--0-----------------------|---------|--0-----------------------| 
B ||-------|-------1----------------------|---------|-------2------------------|---------|-------2------------------| 
G ||-------|------------2-----------------|---------|------------1-------------|---------|------------0-------------| 
D ||-------|------------------------------|---------|--------------------------|---------|--------------------------| 
A ||-------|------------------------------|---------|--------------------------|---------|--------------------------| 
C#||-------|------------------------------|---------|--------------------------|---------|--------------------------| 
Раз - Два, три - Четыре, пять - 
рассказ. смотри. скорей гулять. 

|---------|--0------------------------|---------|| 
|---------|-------2-------------------|---------|| 
|---------|------------1--------------|---------|| 
|---------|---------------------------|---------|| 
|---------|---------------------------|---------|| 
|---------|---------------------------|---------|| 
Шесть, семь - Восемь, девять - 
уйду совсем что мне делать? 

Куплет: 
E ||---------------2--2--------|--------------2--2--------|--------------0--0--------|--------------0--0--------| 
B ||---------1--1--------1--1--|--------1--1--------1--1--|--------2--2--------2--2--|--------2--2--------2--2--| 
G ||*--2--2--------------------|--2--2--------------------|--1--1--------------------|--1--1--------------------| 
D ||*--------------------------|--------------------------|--------------------------|--------------------------| 
A ||---------------------------|--------------------------|--------------------------|--------------------------| 
C#||---------------------------|--------------------------|--------------------------|--------------------------| 
Десять. Десять. 

|--------------0--0--------|--------------0--0--------|----------------------|| 
|--------2--2--------2--2--|--------2--2--------2--2--|----------------------|| 
|--0--0--------------------|--0--0--------------------|--1--1--1------------*|| 
|--------------------------|--------------------------|---------------------*|| 
|--------------------------|--------------------------|----------------------|| 
|--------------------------|--------------------------|----------------------|| 
Десять. Десять. 

Дождь в дорогу, гость к пороку. 
Сон в руке, налегке. 
Ветер в сердце, скрипнет дверца, 
Светлый рыцарь только снится. 
И в заколдованном замке давно 
Его песен не слышу, 
Тех от которых светлее и выше. 

Припев: 
E ||--------------------------|| 
B ||--------------------------|| 
G ||--------------------------|| 
D ||-----------------------6--|| 
A ||--------------4--6--7-----|| 
C#||--0--2--3--7--------------|| 

C 
Всё живое всё вернётся 
Em 
День проснётся, дождь прольётся, 
B G Am 
Тёплый ветер в волосы вплетётся, аааа-ааа 
C Em 
Твоей жизнью жизнь моя найдётся, 
B 
Этим солнцем всё спасётся 
G Am 
Всё живое, аааа-аааа. 


Все тут знают, замерзают, 
Сном инея, но не я. 
Греюсь под солнцем, что вышито нам 
В гобелене старом. Пряжу пряду 
Из дворцовых туманов. 
Но в заколдованном замке не помнит никто 
Большое то счастье живого всего 
Быть маленькой частью 

Припев. 

Опускаем 6ую струну на 1.5 тона вниз 
(иначе не смогём прикинуться виолончелью перед припевом :)) 
Соответственно, аккорды брать можно так: 
C: 332010 
Em: 322000 
B: 224442 
G: 355433 
Am: x02210 
Наверх